Song name
# A B C D E F G H I J K L M N O P Q R S T U V W X Y Z

Dirty Projectors - Stillness Is The Move tab

Help us improve GuitareTab! Take a short survey!
www.myspace.com/dirtyprojectors

dirty projectors - stillness is the move

this is the main guitar line that plays throughout most of the song.  it might be a 
easier to play with a capo on the 7th fret, but it's not too bad without one.


|-------------------------------------------------------------|
|--8h10--8h10--8h10--8h10-8-----------------------------------|
|----------------------------9--7-----------------------------|
|----------------------------------10-------------------------|
|-------------------------------------------------------------|
|-------------------------------------------------------------|

|-------------------------------------------------------------|
|--8h10--8h10--8h10--8h10-8-----------------------------------|
|----------------------------9--7-----------------------------|
|----------------------------------10-------------------------|
|-------------------------------------------------------------|
|-------------------------------------------------------------|

|--------------8----------------------------------------------|
|--8h10---8h10---8h10--8h10-8---------------------------------|
|-------9---------------------9--7-----9--7-------------------|
|----------------------------------10--------10---------------|
|-------------------------------------------------------------|
|-------------------------------------------------------------|

|-------------------------------------------------------------|
|--8h10-8-----------------------------------------------------|
|----------9--7-----------------------------------------------|
|----------------10-------------------------------------------|
|-------------------------------------------------------------|
|-------------------------------------------------------------|
Related for Stillness Is The Move tab