Song name
# A B C D E F G H I J K L M N O P Q R S T U V W X Y Z

Dirty Projectors - The Bride tab

----------------------------------------------
THE BRIDE - Dirty Projectors - from BITTE ORCA
----------------------------------------------

Tabbed by: Kris Ellestad
Date: August 15th, 2009
Email: knilstad@gmail.com
Site: knilstad.blogspot.com

LEGEND:

| ^  brush up
| s  slide
| h  hammer-on
| p  pull-off
| .  staccato
| v  brush down
| ~~~ let ring

Tuning: C F Bb Eb G c (Standard tuning down two whole steps)

Each bar represents 4 beats, the song is in 12/8.

VERSE:

 c||--^7-----7----^7-----7----|-^7-----7----^7-----7----|
 G||--^0----------^0----------|-^0----------^0----------|
Eb||*-^4----------^4----------|-^5----------^5----------|
Bb||*-^6-------6--^6-------6--|-^6-------6--^6-------6--|
 F||--^7----------^7----------|-^7----------^7----------|
 C||--^0--0-------^0--0-------|-^0--0-------^0--0-------|


 c|-----5----------------7-----|-7------7---7---7---7---7---7---|
 G|----------------------4h5---|-4h5----5---5---5---5---5---5---|
Eb|---7--------6--.---.--4-----|-4------4---4---4---4---4---4---|
Bb|-7------7s6----4---4------4-|-----4----4---4---4---4---4---4-|
 F|----------------------------|--------------------------------|
 C|----------------------------|--------------------------------|

 c|-^5-----5-----^5-----5----|-^5-----5-----^5-----5----|
 G|-^5-----5-----^5-----5----|-^5-----5-----^5-----5----|
Eb|-^7-------7---^7-------7--|-^6-------6---^6-------6--|
Bb|-^7--7--------^7--7-------|-^6--6--------^6--6-------|
 F|--------------------------|--------------------------|
 C|--------------------------|--------------------------|

 c|-^5----5-----^5h7---^5h7---|-^5----5-----^2-----2----|
 G|-^4----4-----^4-----^4-----|-^3----3-----^3-----3----|
Eb|-^4------4---^4-----^4-----|-^4------4---^4-------4--|
Bb|-^4--4-------^4---4------4-|-^4--4-------^4--4-------|
 F|---------------------------|-------------------------|
 C|---------------------------|-------------------------|

 c|---------------------0---|---------------------0---|
 G|-2s4s2--2s4----------0---|-2s4s2--2s4----------0---|
Eb|-2s4s2--2s4--------1-----|-2s4s2--2s4--------1-----|
Bb|-2s4s2--2s4------2-------|-2s4s2--2s4------2-------|
 F|-------------------------|-------------------------|
 C|-------------0-----------|-------------0-----------|

                                                     ***CODA on 3rd repeat
 c|---------------------0---|----------------------^0-|
 G|-2s4s2--2s4----------0---|-2h4p2-2h4p2-2h4------^0-|
Eb|-2s4s2--2s4--------1-----|-2h4p2-2h4p2-2h4------^1-|
Bb|-2s4s2--2s4------2-------|-2h4p2-2h4p2-2h4------^2-|
 F|-------------------------|-------------------------|
 C|-------------0-----------|------------------0------|

  1st ending--------------------------------------------
 c|-0-----------------------|--------------------------||
 G|---0---0-----------------|--------------------------||
Eb|-----1---1---1-----------|---------------6---4---4-*||
Bb|-----------2---2---2-----|-------------------------*||
 F|-----------------2---2---|---2---2---2--------------||
 C|-----------------------0-|-0---0---0---0---0---0----||

  2nd ending-------------------------------------------
 c|-------------------------|-------------------------|
 G|-4-----4-----4-----4-----|-4-----4-----4-----4-----|
Eb|---4-----4-----4-----4---|---4-----4-----4-----4---|
Bb|-----4-----4-----4-----4-|-----4-----4-----4-----4-|
 F|-------------------------|-------------------------|
 C|-------------------------|-------------------------|


INTERLUDE:

 c||--.-----.-----.-----.-----|-.-----.-----.-----.-----|
 G||--4-----4-----4-----4-----|-4-----4-----4-----4-----|
Eb||*-4-----4-----4-----4-----|-4-----4-----4-----4-----|
Bb||*-4-----4-----4-----4-----|-4-----4-----4-----4-----|
 F||--------------------------|-------------------------|
 C||--------------------------|-------------------------|

 c|-.-----.-----.-----.-----|-.-----.--.--.--.--.--.--|
 G|-4-----4-----4-----4-----|-4-----4--4--4--4--4--4--|
Eb|-4-----4-----4-----4-----|-4-----4--4--4--4--4--4--|
Bb|-4-----4-----4-----4-----|-4-----4--4--4--4--4--4--|
 F|-------------------------|-------------------------|
 C|-------------------------|-------------------------|

 c|-.-----.-----.-----.-----|-.-----.-----.-----.-----|
 G|-3-----3-----3-----3-----|-3-----3-----3-----3-----|
Eb|-4-----4-----4-----4-----|-4-----4-----4-----4-----|
Bb|-4-----4-----4-----4-----|-4-----4-----4-----4-----|
 F|-------------------------|-------------------------|
 C|-------------------------|-------------------------|

 c|-.-----.-----.-----.-----|-.-----.--.--.--.--.--.---||
 G|-3-----3-----3-----3-----|-3-----3--3--3--3--3--3---||
Eb|-4-----4-----4-----4-----|-4-----4--4--4--4--4--4--*||
Bb|-4-----4-----4-----4-----|-4-----4--4--4--4--4--4--*||
 F|-------------------------|--------------------------||
 C|-------------------------|--------------------------||


Repeat VERSE for a third time and then go to

CODA:

 c|-0-----------------------|-------------------------|
 G|---0---0-----------------|-------------------------|
Eb|-----1---1---1-----------|-------------------------|
Bb|-----------2---2---2-----|-------------------------|
 F|-----------------2---2---|---2-----2-----2-----2---|
 C|-----------------------0-|-0---0-0---0-0---0-0---0-|

 c|-------------------------|-------------|
 G|-------------------------|-------------|
Eb|-------------------------|-------------|
Bb|-------------------------|-------------|
 F|---2-----2-----2-----2---|---2-----2---|
 C|-0---0-0---0-0---0-0---0-|-0---0-0---0-|

 c|---------------------0---|---------------------0---|
 G|-2s4s2--2s4----------0---|-2s4s2--2s4----------0---|
Eb|-2s4s2--2s4--------1-----|-2s4s2--2s4--------1-----|
Bb|-2s4s2--2s4------2-------|-2s4s2--2s4------2-------|
 F|-------------------------|-------------------------|
 C|-------------0-----------|-------------0-----------|

 c|---------------------0---|----------------------^0-|
 G|-2s4s2--2s4----------0---|-2h4p2-2h4p2-2h4------^0-|
Eb|-2s4s2--2s4--------1-----|-2h4p2-2h4p2-2h4------^1-|
Bb|-2s4s2--2s4------2-------|-2h4p2-2h4p2-2h4------^2-|
 F|-------------------------|-------------------------|
 C|-------------0-----------|------------------0------|

 c|-0-----------------------|-v0~~~------||
 G|---0---0-----------------|-v0~~~------||
Eb|-----1---1---1-----------|-v1~~~------||
Bb|-----------2---2---2-----|-v2~~~------||
 F|-----------------2---2---|-v2~~~------||
 C|-----------------------0-|-v0~~~------||

Tap to rate this tab
# A B C D E F G H I J K L M N O P Q R S T U V W X Y Z