Song name
# A B C D E F G H I J K L M N O P Q R S T U V W X Y Z

Dirty Projectors - Rise Above tab

-----------------------------------------------
RISE ABOVE - Dirty Projectors - from RISE ABOVE
-----------------------------------------------

Tabbed by: Kris Ellestad
Date: September 3rd, 2009
Email: knilstad@gmail.com
Site: knilstad.blogspot.com

| s  slide
| h  hammer-on
| p  pull-off
| r  let ring (used to mark tied notes)
| ^  brush up

Standard tuning
Capo on 3rd fret

In 4/4 but I've barred it off in sections of four eighth notes (two beats) for easier reading.


OPENING:

e|--------------|--------------5-|----------------|---5---------------|
B|-------3----3-|--------------5-|----------------|-------6-----------|
G|--------------|--------------5-|----------------|-----------7-------|
D|--------------|----------------|-----------7----|-7-------7-----(7)-|
A|-1--1---------|----(1)--1s3----|-(3s)5--5-----5-|-----5-------5-----|
E|--------------|----------------|----------------|-------------------|

"Jea  -  -  -  -  -  lous      cow  -  -  wards ..."

e|-------^5------|-----------------|-------5---------|---5-------5-----|
B|-------^5------|---5-------5-----|---5-------5-----|-------5-------5-|
G|-------^5----5-|-------5-------5-|---------------5-|---------5-------|
D|-------^5------|-----5-------5---|-----5-------5---|-----5-------5---|
A|-7--7------7---|-7-------7-------|-7-------7-------|-7-------7-------|
E|---------------|-----------------|-----------------|-----------------|

e|--------------|--------------5-|------------------|---5---------------|
B|-------3----3-|--------------5-|------------------|-------6-----------|
G|--------------|--------------5-|------------------|-----------7---(7)-|
D|--------------|----------------|-----------7----7-|-----7-------7-----|
A|-1--1---------|----(1)--1s3----|-(3s)5--5-----5---|-5-------5---------|
E|--------------|----------------|------------------|-------------------|

e|-------^5------|-----------------|---------------|-----------------|
B|-------^5------|---5-------5-----|-------^3------|---3-------------|
G|-------^5----5-|-------5-------0-|-------^3----3-|-------3---------|
D|-------^5------|-----5-------5---|-------^5------|-----------5---5-|
A|-7--7------7---|-7-------7-------|-------^5------|-----5-------5---|
E|---------------|-----------------|-3--3------3---|-3-------3-------|

                                       "do       i  -  -  -  -  t

e|-----------------|-----------------|-------^1------|----------------|
B|---------------3-|---------------3-|-------^1------|---1------------|
G|-----------------|---3-----------3-|-------^2----2-|-------2--------|
D|-----------------|-------5-------5-|-------^3--3---|-----3-----3----|
A|---5---5---5-----|-----5-----5-----|-------^3------|---------3------|
E|-3---3---3---3---|-3-------3---3---|-1--1----------|-1-----------1ss|

   th  -  -  e  -  -  m  -  selves                         we - e  are

  *CODA*
e|---------------|-------^1------|-----------------|------------------|
B|---------------|-------^1------|---1-------------|---------1--------|
G|-3----3----3---|-------^2----2-|-------2---------|-------------2----|
D|-5----5----5---|-------^3--3---|-----3-----3-----|-----------3------|
A|-5----5----5---|-------^3------|-3-------3-----3-|------------------|
E|s3-3----3----3-|-1--1----------|-------------1---|-1-------------1ss|

   ti - red  of..."

e|---------------|----1--------|-------^3------|------------|
B|---------------|----1-----3--|-------^1------|-------3----|
G|-3----3----3---|----2-----3--|-------^2------|-------3----|
D|-5----5----5---|----3-----0--|-------^2----2-|-------0--0-|
A|-5----5----5---|-------------|-0--0------0---|------------|
E|s3-3----3----3-|-1-----3-----|---------------|----3-------|

e|------------|------------|------------|-0----------|
B|------------|-------3----|-------3----|-1-----3----|
G|------------|-------3----|-------3----|-2-----3----|
D|-0--0--0--0-|-0--0--0--0-|-0--0--0--0-|-2-----0----|
A|------------|------------|------------|----0-------|
E|------------|------------|------------|----------3-|

                                          "I find  satis  -

e|-0----------|-0----------|--------------|-------3------|
B|-1-----3----|-1-----3----|-------3------|-------1------|
G|-2-----3----|-2-----3----|-------3----3-|-------2----0-|
D|-2-----0----|-2-----0----|-------3--3---|-------2--2---|
A|----0-------|----0-------|-1------------|-1--0---------|
E|----------3-|----------3-|--------------|--------------|

 - faction..."              "we  -  e  -  e  -  e  are bor  -

e|---------1--------|-------1------|----------------|---0-------------|
B|-----------3------|-------1------|----------------|-------1---------|
G|-------------3----|-------2----0-|---------0----0-|-----0-----0-----|
D|----------------0-|----------3---|------------2---|---------2-----2-|
A|-0----------------|--------------|-(3)--3---------|-3-----------3---|
E|----3-------------|-1--1---------|----------------|-----------------|

  r  -  r  -  r  -  - n  with  a     chance..."

e|-----------------|------------------------|--------------|-------3------|
B|---1-----------1-|------------------------|-------3------|-------1------|
G|-------0---------|---0------0h2p0---------|-------3----3-|-------2----0-|
D|-----2-----2-----|-2--------------3p0-----|-------3--3---|-------2--2---|
A|-3-------3---3---|-----3--------------3p0-|-1--1---------|-1--0---------|
E|-----------------|------------------------|--------------|--------------|

e|----------1-----|-------1------|-------0------|-----------3p0---|
B|-------3----3---|-------1------|-------1------|---1-----------1-|
G|-------3------3-|-------2----0-|-------0----0-|-------0---------|
D|----------------|----------3---|----------2---|-----2-----------|
A|-0--------------|--------------|-3--3---------|-3-------3-------|
E|----3-----------|-1--1---------|--------------|-----------------|

e|-----------------|-------------------------|
B|---1-----1-------|-------------------------|
G|-0---0-----0---0-|-----0-----0h3p0---------|
D|-------2-----2---|-2-----2---------3p0-----|
A|-----------------|---3-----------------3p0-|
E|-----------------|-------------------------|

e|-------------|-------3------|--------------|--------------|
B|-------3-----|-------1------|-------3------|-------1------|
G|-------3---3s|s2-----2----0-|-------3----3r|r3-----2----2r|
D|-------3-----|-------2--2---|-------0--0---|-------3--3---|
A|-1--1--------|----0---------|--------------|--------------|
E|-------------|--------------|-3--3---------|----1---------|

        "Rise above..."

CHORUS: ("Rise above, rise above" etc.)

e||--------------|-------3------|----------------|---------------||
B||--------3-----|-------1------|---------3------|-------1-------||
G||*r2-----3---3r|r3-----2----0-|---------3----3r|r3-----2----2r*||
D||*-------3-----|-------2--2---|---------0--0---|-------3--3---*||
A||--1--1--------|----0---------|----------------|---------------||
E||--------------|--------------|-(3)--3---------|----1----------||

Repeat CHORUS 7 times before BREAKDOWN with variations on the third bar including the following:

e|---------1-----|     |-------1--------|
B|-------3---3---|     |-------3--------|
G|-------3-----3-|  or |-------3--0h3p0-|  etc.
D|-------0-------|     |-------0--------|
A|---------------|     |----------------|
E|-3--3----------|     |-3--3-----------|


BREAKDOWN:

e|------1--------|------1--------|------1--------|------1--------|
B|------1--------|------1--------|------1--------|------1--------|
G|------2----2---|------2----2---|------2----2---|------2----2---|
D|------3--3-----|------3--3-----|------3--3-----|------3--3-----|
A|---------------|---------------|---------------|---------------|
E|---1-----------|---1-----------|---1-----------|---1-----------|

e|-------1------|-------1------|-------1------|-------1-------|
B|-------1------|-------1------|-------1------|-------1-------|
G|----------2---|----2-----2---|----2-----2---|----2-----2----|
D|-0----------0r|r0----------0r|r0----------0r|r0-----------3r|
A|--------------|--------------|--------------|---------------|
E|--------------|--------------|--------------|---------------|

e|-------1------|-------1------|-------1------|-------1-----|
B|-------1------|-------1------|-------1------|-------1-----|
G|----2-----2---|----2-----2---|----2-----2---|----2----2---|
D|-3----------3r|r3----------3r|r3----------3r|r3---------3-|
A|--------------|--------------|--------------|-------------|
E|--------------|--------------|--------------|-------------|

e|--------------|---------1----|--------------|--------1----|
B|--------------|---------1----|--------------|--------1----|
G|--------------|---------2----|--------------|--------2----|
D|--------------|------------3-|--------------|-----------3-|
A|--3-----------|--------------|-3------------|-------------|
E|--1-----------|--------------|-1------------|-------------|

e|-0------------|--------------|--------------|-------------|
B|-0------------|--------------|--------------|-------------|
G|-2------------|--------------|--------------|-------------|
D|--------------|--------------|--------------|-------------|
A|----3---------|--------------|----3------3--|-------------|
E|----1---------|--------------|-1------1-----|-------------|


then back to CODA and end on CHORUS.
Tap to rate this tab
# A B C D E F G H I J K L M N O P Q R S T U V W X Y Z