Song name
# A B C D E F G H I J K L M N O P Q R S T U V W X Y Z

Dirty Projectors - No Intention tab

SONG: NO INTENTION
ARTIST: DIRTY PROJECTORS
ALBUM: BITTE ORCE (2009)
TABBED BY: ZLP

STANDARD TUNING, CAPO ON 8

INTRO/VERSE/OUTRO RIFF

e|-------------------------------|
B|----------------1--------------|
G|5--5--2-----0h2----2p0---0-----|
D|3--3--0----------------2-------| x3
A|-------------------------------|
E|-------------------------------|

e|---------------------------------|
B|----------------1----------------|
G|5--5--2-----0h2---2p0------------|
D|3--3--0---------------2-2p0------|
A|-----------------------------3---|
E|---------------------------------|

CHORUS (With whatever rhythmic variations.)

 (Ab)  (Db)
e|0--0--1----11--|
B|1--1--1----11--|
G|0--0--2----22--|
D|2--2--3----33--|
A|3--3--3----33--|
E|---------------|

(Most of the) SOLO

e|-------------------------------------------------------------------------|
B|------------------8------------8----------0-0h1p0--0-0h1p0-0h1p0-0h1p0---|
G|----7--------------9----7h9p7----9-7h9p7---------------------------------|
D|7h10--10p7----7----------------------------------------------------------|
A|----------10-------------------------------------------------------------|
E|-------------------------------------------------------------------------|

e|--------------------------------------------------------------------|
B|0h1p0---3-3h5p3--3-3h5p3-3h5p3-3h5p3-3h5p3-0--0-0h1p0--0-0h1p0-0h1p0|
G|------0-------------------------------------------------------------|
D|--------------------------------------------------------------------|
A|--------------------------------------------------------------------|
E|--------------------------------------------------------------------|

e|----------------| Harmonized Part   |3h5p3---|  |0h1p0---|
B|0h1p0-0h1p0-----| That I Cannot     |3h5p3---|  |0h1p0---|
G|------------0---| Figure Out But    |------5-|  |------0-|
D|----------------| These are the     |--------|  |--------|
A|----------------| Harmonized Trills |--------|  |--------|
E|----------------| That End The Solo |--------|  |--------|


Play each of the harmonized trills how you hear Dave playing them in the song.
Tap to rate this tab
# A B C D E F G H I J K L M N O P Q R S T U V W X Y Z