Guitaretab - guitar tabs
Song name
# A B C D E F G H I J K L M N O P Q R S T U V W X Y Z

Dirty Projectors - Cannibal Resource tab

------------------------------------------------------
CANNIBAL RESOURCE - Dirty Projectors - from BITTE ORCA
------------------------------------------------------

Tabbed by: Kris Ellestad
Date: November 19th, 2009
Email: knilstad@gmail.com
Site: knilstad.blogspot.com

*TWO NOTES*

1. This tab is a representation of the recorded version of
Cannibal Resource. The live version features many variations
on the material presented here and can be figured out by using
what's written here as a springboard.

2. Because of the high notes and the capo on the 5th fret, the BRIDGE
is difficult (but not impossible) to play cleanly on a guitar that
doesn't allow easy access to the higher frets (i.e. up to 17).

| s slide
| p pull-off

Standard tuning
Capo on 5th fret


INTRO:

   1 e & a 2 e & a 3 e & a 4 e & a   1 e & a 2 e & a 3 e & a 4 e & a
e|-------------------------5---5---|-----3-------2-------------------|
B|-2-----3sssss8-------7---5---5---|-----5p3-----3-----3-3-3-3-3-3-3-|
G|-2-----2sssss7-------7---7---7p6-|-----4-------2-----0-0-0-0-0-0-0-|
D|---------------------0---0---0---|-----0-------0-----0-0-0-0-0-0-0-|
A|---------------------------------|-------------------0-0-0-0-0-0-0-|
E|-2-----2sssss7-------------------|---------------------------------|

   1  &  2  &  3  &  4  &   1  &  2  &  3  &  4  &
e|------------------------|-------------------------|
B|-3--3-----8-------------|-3--3-----8--------------|
G|-4--4-----9-------------|-4--4-----9--------------|
D|-2--2-----7-------------|-2--2-----7--------------|
A|-0--0-----0-------------|-0--0-----0--------------|
E|------------------------|-------------------------|

   1 e & a 2 e & a 3 e & a 4 e & a   1 e & a 2 e & a 3 e & a 4 e & a
e|-------------------------5---5---|-----7-------9-----5-5-5-5-5-5-5-|
B|-2-----3sssss8-------7---5---5---|-----10------10----5-5-5-5-5-5-5-|
G|-2-----2sssss7-------7---7---7p6-|-----9p7-----9-----7-7-7-7-7-7-7-|
D|---------------------0---0---0---|-----0-------0-------------------|
A|---------------------------------|---------------------------------|
E|-2-----2sssss7-------------------|---------------------------------|

   1  &  2  &  3  &  4  &   1  &  2  &  3  &  4  &
e|------------------------|-------------------------|
B|-3--3-----8-------------|-3--3-----8--------------|
G|-4--4-----9-------------|-4--4-----9--------------|
D|-2--2-----7-------------|-2--2-----7--------------|
A|-0--0-----0-------------|-0--0-----0--------------|
E|------------------------|-------------------------|


VERSE 1:

   1  &  2  &  3  &  4  &    1  &  2  &  3  &  4  &
e|-------------------------|------------------------|
B|-------------------------|------------------------|
G|-------------------------|------------------------|
D|-------------------------|------------------------|
A|-7--7-----5--------10-10-|-7--7-----5--------8--8-|
E|-5--5-----5--------5--5--|-5--5-----5--------5--5-| 

     "Look around at everyone..."

   1  &  2  &  3  &  4  &    1 e & a 2 e & a 3 e & a 4 e & a
e|-------------------------|---------------------------------|
B|-------------------------|---------------------------------|
G|-------------------------|---------------------------------|
D|-------------------------|---------------------------------|
A|-9--9--------------------|---------------------------4-4-4-|
E|-5--5--------------------|---------------------------2-2-0-|

   1  &  2  &  3  &  4  &    1  &  2  &  3  &  4  &
e|-------------------------|------------------------|
B|-------------------------|------------------------|
G|-------------------------|------------------------|
D|-------------------------|------------------------|
A|-7--7-----5--------10-10-|-7--7-----5--------8--8-|
E|-5--5-----5--------5--5--|-5--5-----5--------5--5-|  

   1  &  2  &  3  &  4  &    1 e & a 2 e & a 3 e & a 4 e & a
e|-------------------------|---------------------------------|
B|-------------------------|---------------------------------|
G|-------------------------|---------------------------------|
D|-------------------------|---------------------------------|
A|-9--9--------------------|---------------------4-4-5-4-2-4-|
E|-5--5--------------------|---------------------2-2-2-2-2-2-|

[ Tab from: http://www.guitaretab.com/d/dirty-projectors/205322.html ]
First CHORUS has no guitar on the album, but the INTRO is played live.


BRIDGE:

   1  e  &  a  2  e  &  a  3  e  &  a  4  e  &  a 
e|-12----7ss9--------10----5-----------9-----2----|
B|-10----8ss10-------8-----3-----------10----3----|
G|-11----7ss9--------7-----2-----------9-----2----|
D|-9-----9ss11-------9-----4-----------11----0----|
A|-0-----0-----------0-----0-----------0-----0----|
E|------------------------------------------------|

   1  e  &  a  2  e  &  a  3  e  &  a  4  e  &  a
e|----0--0--------2--2--------0--0--------0--0--0-|
B|----3--3--------3--3--------3--3--------3--3--3-|
G|----4--4--------2--2--------4--4--------4--4--4-|
D|----0--0--------0--0--------0--0--------0--0--0-|
A|----0--0--------0--0--------0--0--------0--0--0-|
E|------------------------------------------------|

   1  e  &  a  2  e  &  a  3  e  &  a  4  e  &  a 
e|-12----7ss9--------10----5-----------9-----2----|
B|-10----8ss10-------8-----3-----------10----3----|
G|-11----7ss9--------7-----2-----------9-----2----|
D|-9-----9ss11-------9-----4-----------11----0----|
A|-0-----0-----------0-----0-----------0-----0----|
E|------------------------------------------------|

   1  e  &  a  2  e  &  a  3  e  &  a  4  e  &  a
e|----0--0--------2--2--------0--0--------0--0--0-|
B|----3--3--------3--3--------3--3--------3--3--3-|
G|----4--4--------2--2--------4--4--------4--4--4-|
D|----2--2--------0--0--------2--2--------2--2--2-|
A|----4--4--------0--0--------4--4--------4--4--4-|
E|---(0)(0)------------------(0)(0)------(0)(0)(0)|


VERSE 2:

   1  &  2  &  3  &  4  &    1  &  2  &  3  &  4  &
e|-------------------------|------------------------|
B|-------------------------|------------------------|
G|-------------------------|------------------------|
D|-------------------------|------------------------|
A|-7--7-----5--------10-10-|-7--7-----5--------8--8-|
E|-5--5-----5--------5--5--|-5--5-----5--------5--5-| 

      "Can it ask a question..."

   1  &  2  &  3  &  4  &    1 e & a 2 e & a 3 e & a 4 e & a
e|-------------------------|---------------------------------|
B|-------------------------|---------------------------------|
G|-------------------------|---------------------------------|
D|-------------------------|---------------------------------|
A|-9--9--------------------|-----------------------4-5-4-2-4-|
E|-5--5--------------------|-----------------------2-2-2-2-2-|

   1  &  2  &  3  &  4  &    1  &  2  &  3  &  4  &
e|-------------------------|------------------------|
B|-------------------------|------------------------|
G|-------------------------|------------------------|
D|-------------------------|------------------------|
A|-7--7-----5--------10-10-|-7--7-----5--------8--8-|
E|-5--5-----5--------5--5--|-5--5-----5--------5--5-|  

   1 e & a 2 e & a 3 e & a 4 e & a   1 e & a 2 e & a 3 e & a 4 e & a
e|---------------------------------|---------------------------------|
B|---------------------------------|---------------------------------|
G|---------------------------------|---------------------------------|
D|---------------------------------|---------------------------------|
A|-9---9-------4-----4-4-2-5-4-2-4-|-7---7-------4-----4-4-2-5-4-2-4-|
E|-5---5-------2-----2-2-2-2-2-2-2-|-5---5-------2-----2-2-2-2-2-2-2-|


CHORUS 2 on the album repeats the INTRO figure.


Repeat BRIDGE with "I'm cryin'" lyric.


Repeat INTRO


CHORUS 3 on the album without guitar.


OUTRO:

     1 e & a 2 e & a 3 e & a 4 e & a
e||-----------------------------------||
B||-----------------------------------||
G||*---------------------------------*||   REPEAT 8 TIMES
D||*---------------------------------*||
A||--7---7-------4-----4-4-2-5-4-2-4--||
E||--5---5-------2-----2-2-2-2-2-2-2--||


GUITAR 1 FINAL CHORDS:

   1 e & a
e|---------||
B|---------||
G|---------||
D|---------||
A|-7---7---||
E|-5---5---||


GUITAR 2 OUTRO CHORD (also used in VERSE 2):

     1 e & a 2 e & a 3 e & a 4 e & a
e||----------0------------------------||
B||----------3------------------------||
G||*---------4-----------------------*||   REPEAT 9 TIMES
D||*---------2-----------------------*||
A||----------5------------------------||
E||-----------------------------------||

Related for Cannibal Resource tab
Cannibal Resource chords by Dirty Projectors