Song name
# A B C D E F G H I J K L M N O P Q R S T U V W X Y Z

Dirty Projectors - Stillness Is The Move tab

Capo on 12th fret (all notes relative to capo)

VERSE

E|-------------------------------|
B|-------------------------------|
G|-0h2--0h2--0h2---0h2p0---------|
D|----------------------2p0------| x2
A|--------------------------p3---|
E|-------------------------------|

E|--------------------------------|
B|--------------------------------|
G|-0h2--0h2h5--0h2---0h2p0--------|
D|------------------------2p0-----| x1
A|---------------------------p3---|
E|--------------------------------|

E|-----------------------------|
B|-----------------------------|
G|-0h2-----------0h2p0---------|
D|------0h2--0--------0h2p0-5--| x1
A|-----------------------------|
E|-----------------------------|

Chords at 2:18 mark:
F   Em
Tap to rate this tab
 
# A B C D E F G H I J K L M N O P Q R S T U V W X Y Z