Song name
# A B C D E F G H I J K L M N O P Q R S T U V W X Y Z

Dirty Projectors - Remade Horizon tab

Remade Horizon
Dirty Projectors

Tabbed by Joel A.
(blackrivermood@wowway.com)

The song goes between a triplet feel in 4/4 time and a straight feel in 6/4 time. 
Try to bear with the changing meters.

Standard tuning
Capo 5


VERSE 1,2

e|--3---0---0---2---2---0---0---0---|
B|--0---0---1---1---0---3---3---3---|
G|--0---0---2---2---2---4---4---4---|
D|--0---2---2---0---1---4---4---4---|
A|--2---2---0---0--(2)--2---2---2---|
E|--3---0---------------------------|
    G  Em  Am  D7  B7  Bm  Bm  Bm


CHORUS 1 (triplet count denoted "1  &  a") 

Guitar 1 (just behind beat):

e|-------------------------------------------------------------------------|
B|-------------------------------------------------------------------------|
G|-------------------------------------------------------------------------| X4
D|-----------5--------4--------------------------4--------2----------------|
A|-----------0--------0--------------------------0--------0----------------|
E|-------------------------------------------------------------------------|
   1  &  a  2  &  a  3  &  a  4  &  a  1  &  a  2  &  a  3  &  a  4  &  a

Guitar 2 (on beat):

e|-------------------------------------------------------------------------|
B|-------------------------------------------------------------------------|
G|----------4--------2--------------------------2--------2-----------------| X4
D|----------5--------4--------------------------4--------2-----------------|
A|-------------------------------------------------------------------------|
E|-------------------------------------------------------------------------|
   1  &  a  2  &  a  3  &  a  4  &  a  1  &  a  2  &  a  3  &  a  4  &  a


CHORUS 2: Muted playing of the instrumental part

BRIDGE: A bit hard to make out, sounds like

e|--3---3---3---1---3---3---3---3---3---3---3---3---|
B|--3---3---1---1---1---1---1---1---1---1---1---1---|
G|--3---2---1---1---0---0---0---0---0---0---0---0---|
D|----------------------2---2---2---2---2---2---2---|
A|--------------------------------------------------|
E|--------------------------------------------------|
    

INSTRUMENTAL PART

Guitar 1:

e|-------5-----------7-----3s10-----------10-12s15-------9--5--------------|
B|-3--5-----5--7--8--------------------10----------------------5p-3--------|
G|----------------------7--------------------------------------------4-----| X4
D|----------------------------------------------------------------------5--| 
A|-------------------------------------------------------------------------|
E|-------------------------------------------------------------------------|
   1  &  a  2  &  a  3  &  a  4  &  a  1  &  a  2  &  a  3  &  a  4  &  a

Guitar 2:

e|-------------------------------9--7--------------12-10-------------------|
B|----------5--------------------------10----------12-12-------------------|
G|-------------------------------------------------------------------------|
D|-------------------------------------------------------------------------|
A|-------------------------------------------------------------------------|
E|-------------------------------------------------------------------------|
   1  &  a  2  &  a  3  &  a  4  &  a  1  &  a  2  &  a  3  &  a  4  &  a

e|-------------------------------9--7--------------12-10-------------------|
B|----------8--------------------------10----------12-12-------------------|
G|-------------------------------------------------------------------------|
D|-------------------------------------------------------------------------|
A|-------------------------------------------------------------------------|
E|-------------------------------------------------------------------------|
   1  &  a  2  &  a  3  &  a  4  &  a  1  &  a  2  &  a  3  &  a  4  &  a

e|-------------------------------9--7--------------12-10-------------------|
B|----------10-------------------------10----------12-12-------------------|
G|-------------------------------------------------------------------------| X2
D|-------------------------------------------------------------------------|
A|-------------------------------------------------------------------------|
E|-------------------------------------------------------------------------|
   1  &  a  2  &  a  3  &  a  4  &  a  1  &  a  2  &  a  3  &  a  4  &  a


2ND PART ( 6/4 feel )

Guitar 1 (just behind beat):

e|-------------------------------------------------|
B|-------------------------------------------------|
G|-------------------------------------------------| X4
D|-------5-------4---------------4-------2---------|
A|-------0-------0---------------0-------0---------|
E|-------------------------------------------------|
   1 & 2 & 3 & 4 & 5 & 6 & 1 & 2 & 3 & 4 & 5 & 6 &  

Guitar 2 (on beat):

e|-------------------------------------------------|
B|-------------------------------------------------|
G|-------4-------2---------------2-------2---------| X4
D|-------5-------4---------------4-------2---------|
A|-------------------------------------------------|
E|-------------------------------------------------|
   1 & 2 & 3 & 4 & 5 & 6 & 1 & 2 & 3 & 4 & 5 & 6 &  

3RD PART (Amber and Haley)

Guitar 2 (comes in 5th time):

e|---------------------9-7---------1210------------|
B|-------10----------------10------1212------------|
G|-------------------------------------------------| X4
D|-------------------------------------------------|
A|-------------------------------------------------|
E|-------------------------------------------------|
   1 & 2 & 3 & 4 & 5 & 6 & 1 & 2 & 3 & 4 & 5 & 6 &


e|---------------------9-7---------1210------------|
B|-------5-----------------10------1212------------|
G|-------------------------------------------------|
D|-------------------------------------------------|
A|-------------------------------------------------|
E|-------------------------------------------------|
   1 & 2 & 3 & 4 & 5 & 6 & 1 & 2 & 3 & 4 & 5 & 6 &


e|---------------------9-7---------1210------------|
B|-------8-----------------10------1212------------|
G|-------------------------------------------------|
D|-------------------------------------------------|
A|-------------------------------------------------|
E|-------------------------------------------------|
   1 & 2 & 3 & 4 & 5 & 6 & 1 & 2 & 3 & 4 & 5 & 6 &

Guitar 1 (comes in 8th time, same as interlude):

e|-----5-------7---3s10------10-1215---9-5---------|
B|-3-5---5-7-8-------------10--------------5p3-----|
G|---------------7-----------------------------4---| X3
D|-----------------------------------------------5-|
A|-------------------------------------------------|
E|-------------------------------------------------|
   1 & 2 & 3 & 4 & 5 & 6 & 1 & 2 & 3 & 4 & 5 & 6 &

CHORUS 3/ENDING: Same as 1st chorus
Tap to rate this tab
 
# A B C D E F G H I J K L M N O P Q R S T U V W X Y Z