Song name
# A B C D E F G H I J K L M N O P Q R S T U V W X Y Z

Dirty Projectors - Just From Chevron tab

Dirty Projectors - Just From Chevron

Capo 5

Intro

E|---2-------------5-----------2-------------0------------------------------|
B|--3-----3-/-7-------7-------3-----3-/-7--------7--------------------------|
G|-----2-(2)/(6)----6------------2-(2)/(6)-----6---6------------------------|
D|-0-------------0-----------0-----(3)/(7)----------------------------------|
A|-----------------------------------------0--------------------------------|
E|--------------------------------------------------------------------------|

Verse                                           (Alternative*)

E|---2-------------5-----------------0------|-----2-------0------------------|
B|--3-----3-/-7-------7------7--------------|---------3-------3--------------|
G|-----2-(2)/(6)----6------------7-------7--|--------------------------------|
D|-0-------------0-------------0-------0----|-------0-------0----------------|
A|------------------------------------------|---2-------2--------------------|
E|-------------------------7-------7--------|--------------------------------|

E|--------------------------------------------------------------------------|
B|---3-------3-------2-------2--------1-------1-------0-------4-------------|
G|-------2-------2-------2-------2--------0-------0-------0------0----------|
D|-----2-------2-------2-------2--------2-------2--------------0------------|
A|-0-------0-------0-------0--------0-------------------0-------------------|
E|------------------------------------------3-------3-------3---------------|

Chorus

E|--/5---------0-----(0)-------------------------2--------------------------|
B|---------(0h)7p0----5---(5)p0---------0------------3----------------------|
G|--/2--0----------6----6-------------------0------2------------------------|
D|------------------------------7p0-------0---------------------------------|
A|--------------------------------------------------------------------------|
E|--------------------------------------3------2----------------------------|

* Live he plays this part up at 7; sounds fine at 2 if that's easier.

Notes: While we wait for Kris Ellestad's note-perfect tab, here are my slight edits to
Lauren's excellent effort -- ignore the URL --
(http://harmonies.tumblr.com/post/29817591566/i-have-no-idea-what-im-doing), adding my 
take on the fast part.

Tabbed from the live acoustic Studio 360 performance, but shouldn't be far off the album
version. (http://www.studio360.org/2012/jul/13/live-in-studio-dirty-projectors/)

mellin(d/o/t)michael(a/t)gmail
Tap to rate this tab
# A B C D E F G H I J K L M N O P Q R S T U V W X Y Z