Song name
# A B C D E F G H I J K L M N O P Q R S T U V W X Y Z

Dirty Rotten Imbeciles - Acid Rain tab

-------------------------------------------------------------|
-------------------------------------------------------------|
-----------------                                          2-|0x
-------------------------------------------------------------|
-------------------------------------------------------------|
0-000-0-000-000----------------------------------------------|

----------------------------------------------------|
----------------------------------------------------|
----------------------------------------------------|
----------------------------------------------------|         2x
-2----4-5-55-5 - 4-4-5-0----8-4----0----------------|
-0-00-2-3-33-3 - 2-2-3-2-00-6-2-00-2-00-0-000-000---|

----------------------------------------------------|
----------------------------------------------------|
----------------------------------------------------|
-9-000-7-000-543-0000000000000----------------------|         4x
-7-000-5-000-321-0000000000000----------------------|
----------------------------------------------------|
Tap to rate this tab
# A B C D E F G H I J K L M N O P Q R S T U V W X Y Z