Guitaretab - guitar tabs
Song name
# A B C D E F G H I J K L M N O P Q R S T U V W X Y Z

Dirty Rotten Imbeciles - Mad Man tab

D.R.I.

song: mad man

album: dealing with it


tabbed by Rudy Guzman

guzman_84@hotmail.com



|------------------------|
|------------------------|
|------------------------|
|-5-7--5-7--7-7-7--------|
|-5-7--5-7--5-5-5--6-6-6-|
|-3-5--3-5---------4-4-4-|


|-----------------|------|
|-----------------|------|
|-----------------|------|
|--4-4-4-4--6--7--|-4----|
|--2-2-2-2--4--5--|-2----|
|-----------------|------|


|------------------------|
|------------------------|
|------------------------|
|-5-7--5-7--7-7-7--------|
|-5-7--5-7--5-5-5--6-6-6-|
|-3-5--3-5---------4-4-4-|


|----------------|------------|
|----------------|------------|
|----------------|--9bfp7-----|
|--4-4-4-4--6--7-|--------9~~~|
|--2-2-2-2--4--5-|------------|
|----------------|------------|

[ Tab from: http://www.guitaretab.com/d/dirty-rotten-imbeciles/132614.html ]
|-------------------------------------|
|-------------------------------------|
|-------------------------------------|
|-5-7--5-7--7-7-7---------------------|
|-5-7--5-7--5-5-5--6-6-6-6-6-6-6--6-7-|
|-3-5--3-5---------4-4-4-4-4-4-4--4-5-|


|---------------------|
|---------------------|
|--2-222222222222-3-2-|
|--2-222222222222-3-2-|
|--0-000000000000-1-0-|
|---------------------|


|------------------|
|-------------5~~~-|
|-------5--7-------|
|-5--7-------------|
|------------------|
|------------------|


|------------------------|
|------------------------|
|------------------------|
|-5-7--5-7--7-7-7--------|
|-5-7--5-7--5-5-5--6-6-6-|
|-3-5--3-5---------4-4-4-|

|-----------------|------|
|-----------------|------|
|-----------------|------|
|--4-4-4-4--6--7--|-4----|
|--2-2-2-2--4--5--|-2----|
|-----------------|------|
Related for Mad Man tab
Advertisement will be closed in 10 seconds