Song name
# A B C D E F G H I J K L M N O P Q R S T U V W X Y Z

Dirty Rotten Imbeciles - Slit My Wrist tab

slit my wrist


D.R.I.


TRANSCRIBED BY RUDY GUZMAN


guzman_84@hotmail.com


e:------------------------------------|
B:------------------------------------|
G:------------------------------------|
D:------------------------------------|
A:------------12-12-------------12-12-|
E:-4h5p4h5p4--10-10--4h5p4h5p4--10-10-|

e:---------------------------------------------------------|
B:---------------------------------------------------------|
G:---------------------------------------------------------|
D:---------------------------------------------------------|
A:-7-7--4-5--7-7--4-5---12-12-------------12-12------------|
E:-5-5--2-3--5-5--2-3---10-10--7h8p7h8p7--10-10--7h8p7h8p7-|

e:------------------------------------|
B:------------------------------------|
G:------------------------------------|
D:------------------------------------|
A:------------12-12-------------12-12-|
E:-4h5p4h5p4--10-10--4h5p4h5p4--10-10-|

e:---------------------------------------------------------|
B:---------------------------------------------------------|
G:---------------------------------------------------------|
D:---------------------------------------------------------|
A:-7-7--4-5--7-7--4-5---12-12-------------12-12------------|
E:-5-5--2-3--5-5--2-3---10-10--7h8p7h8p7--10-10--7h8p7h8p7-|

e:------------------------------------|
B:------------------------------------|
G:------------------------------------|
D:------------------------------------|
A:------------12-12-------------12-12-|
E:-4h5p4h5p4--10-10--4h5p4h5p4--10-10-|

e:---------------------------------------------------------|
B:---------------------------------------------------------|
G:-----------------------------------------7--4h5p4h5p4----|
D:---------------------------------------------------------|
A:-7-7--4-5--7-7--4-5---12-12------------------------------|
E:-5-5--2-3--5-5--2-3---10-10--7h8p7h8p7-------------------|

e:------------------------------------|
B:------------------------------------|
G:------------------------------------|
D:------------------------------------|
A:------------12-12-------------12-12-|
E:-4h5p4h5p4--10-10--4h5p4h5p4--10-10-|


e:-------|
B:-------|
G:-------|
D:-------|
A:--7----|
E:--5----|
Tap to rate this tab
 
# A B C D E F G H I J K L M N O P Q R S T U V W X Y Z