Song name
# A B C D E F G H I J K L M N O P Q R S T U V W X Y Z

Dirty Rotten Imbeciles - Acid Rain tab

E ---------------------------------------------------------------------|
B ---------------------------------------------------------------------|
G ---------------------------------------------------------------------|
D --2-------------------------------------2------3----------2----------|
A --2-------4---5-------5/4---4---5-------2------1--3-------2----------|
E --0-0-0-0-2-0-3-0-0-0-3/2-0-2-0-3-0-0-0-0-0-0-0-0-1-1-1-1-0-0-0-0-0--|...


E --- ------------------------------------------------------------------|
B ----------------------------------------------------------------------|
G ----------------------------------------------------------------------|
D ---9------------------------------------------------------------------|
A ---7----9-----10-9-8--------------------------------------------------|
E ----000-7-777-8--7-6--------------------------------------------------|

E --------------------------------------------------------------------|
B --------------------------------------------------------------------|
G --------------------------------------------------------------------|
D --------------4-5---------------------------------------------------|
A --5-----4-----2-3--5-----4------------------------------------------|
E --3-000-2-000------3-000-2-000-000----------------------------------|

E --------------------------------------------------------------------|
B --------------------------------------------------------------------|
G --------------------------------------------------------------------|
D --------------------------------------------------------------------|
A --2-------3-3-3-3-2-------5/3---3-2---------------------------------|
E --0-000-0-1-1-1-1-0-000-0-3/2-0-2-0---------------------------------|

ZERO --> With palm mutting
Tap to rate this tab
 
# A B C D E F G H I J K L M N O P Q R S T U V W X Y Z