Song name
# A B C D E F G H I J K L M N O P Q R S T U V W X Y Z

Dirty Rotten Imbeciles - Bail Out tab

Bail out


D.R.I.


TRANSCRIBED BY RUDY GUZMAN


guzman_84@hotmail.com


e:------------------------|
B:------------------------|
G:------------------------|
D:-4-4--7-7--2-2----------|
A:-2-2--5-5--0-0--2h3p2---|
E:------------------------|

e:------------------------|
B:------------------------|
G:------------------------|
D:-4-4--7-7--2-2--x-x-x---|
A:-2-2--5-5--0-0--x-x-x---|
E:------------------------|

verse
e:------------------------|
B:------------------------|
G:------------------------|
D:-4-4--7-7--2-2----------|
A:-2-2--5-5--0-0--2h3p2---|
E:------------------------|

e:------------------------------------------------|
B:------------------------------------------------|
G:------------------------------------------------|
D:-7-7--9/10\9--7-7--9/10\9--12-12---4-4--7-7--2--|
A:-5-5--7/8-\7--5-5--7/8-\7--10-10---2-2--5-5--0--|
E:------------------------------------------------|

verse
e:------------------------|
B:------------------------|
G:------------------------|
D:-4-4--7-7--2-2----------|
A:-2-2--5-5--0-0--2h3p2---|
E:------------------------|

e:------------------------------------------------------|
B:------------------------------------------------------|
G:------------------------------------------------------|
D:-7-7--10-9/10\9--7-7--10-9/10\9--12-12---4-4--7-7--2--|
A:-5-5--8--7/8-\7--5-5--8--7/8-\7--10-10---2-2--5-5--0--|
E:------------------------------------------------------|

verse
e:------------------------|
B:------------------------|
G:------------------------|
D:-4-4--7-7--2-2----------|
A:-2-2--5-5--0-0--2h3p2---|
E:------------------------|

e:------------------------------------------------|
B:------------------------------------------------|
G:------------------------------------------------|
D:-7-7--9/10\9--7-7--9/10\9--12-12---4-4--7-7--2--|
A:-5-5--7/8-\7--5-5--7/8-\7--10-10---2-2--5-5--0--|
E:------------------------------------------------|

verse
e:------------------------|
B:------------------------|
G:------------------------|
D:-4-4--7-7--2-2----------|
A:-2-2--5-5--0-0--2h3p2---|
E:------------------------|

e:------------------------------------------------|
B:------------------------------------------------|
G:------------------------------------------------|
D:-7-7--9/10\9--7-7--9/10\9--12-12---4-4--7-7--2--|
A:-5-5--7/8-\7--5-5--7/8-\7--10-10---2-2--5-5--0--|
E:------------------------------------------------|

verse
e:------------------------|
B:------------------------|
G:------------------------|
D:-4-4--7-7--2-2----------|
A:-2-2--5-5--0-0--2h3p2---|
E:------------------------|

e:------------------------------------------------|
B:------------------------------------------------|
G:------------------------------------------------|
D:-7-7--9/10\9--7-7--9/10\9--12-12---4-4--7-7--2--|
A:-5-5--7/8-\7--5-5--7/8-\7--10-10---2-2--5-5--0--|
E:------------------------------------------------|
Tap to rate this tab
# A B C D E F G H I J K L M N O P Q R S T U V W X Y Z