Song name
# A B C D E F G H I J K L M N O P Q R S T U V W X Y Z

Dirty Rotten Imbeciles - Busted Again tab

Busted again


D.R.I.


TRANSCRIBED BY RUDY GUZMAN


guzman_84@hotmail.com


e:---------------------|
B:---------------------|
G:---------------------|
D:---------------------|
A:--5--7--8---3-/-4/5--|
E:--3--5--6---1-/-2/3--|

verse
e:---------------------|
B:---------------------|
G:---------------------|
D:---------------------|
A:--5--7--8---3-/-4/5--|
E:--3--5--6---1-/-2/3--|

e:---------------------|
B:---------------------|
G:---------------------|
D:---------------------|
A:--5--7--8---3---4-4--|
E:--3--5--6---1---2-2--|


e:-----------------|
B:-----------------|
G:-----------------|
D:-----------------|
A:-7--7-7-7--8--7--|
E:-5--5-5-5--6--5--|


e:---------------------------------------|
B:---------------------------------------|
G:---------------------------------------|
D:---------------------------------------|
A:--5-5-5-5--7-8--3-3---5-5-5-5--7-8--3--|
E:--3-3-3-3--5-6--1-1---3-3-3-3--5-6--1--|


e:-----------------|
B:-----------------|
G:-----------------|
D:-----------------|
A:-7--7-7-7--8--7--|
E:-5--5-5-5--6--5--|


e:---------------------------------------------|
B:---------------------------------------------|
G:---------------------------------------------|
D:---------------------------------------------|
A:--5-5-5-5--7-8--3-3---5-5-5-5--7-8--3-3--5-5-|
E:--3-3-3-3--5-6--1-1---3-3-3-3--5-6--1-1--3-3-|

e:-----------------|
B:-----------------|
G:-----------------|
D:-----------------|
A:-7--7-7-7--8--7--|
E:-5--5-5-5--6--5--|

e:-----------------------------------------|
B:-----------------------------------------|
G:-----------------------------------------|
D:-----------------------------------------|
A:--5-5-5-5--7-8--3-3---5-5-5-5--7-8--3-3--|
E:--3-3-3-3--5-6--1-1---3-3-3-3--5-6--1-1--|

e:---------------------|
B:---------------------|
G:---------------------|
D:---------------------|
A:--5--7--8---3-/-4/5--|
E:--3--5--6---1-/-2/3--|

e:---------------------|
B:---------------------|
G:---------------------|
D:---------------------|
A:--5--7--8---3---4-4--|
E:--3--5--6---1---2-2--|
Tap to rate this tab
# A B C D E F G H I J K L M N O P Q R S T U V W X Y Z