Song name
# A B C D E F G H I J K L M N O P Q R S T U V W X Y Z

Dirty Rotten Imbeciles - Equal People tab

D.R.I.

song: equal people

album: dealing with it


tabbed by Rudy Guzman

guzman_84@hotmil.com



|----------------------------|
|----------------------------|
|----------------------------|
|-9-9-9--10-10-10--7-7-7--9--|
|-7-7-7--8--8--8---5-5-5--7--|
|----------------------------|

verse
look at you look at me there's no difference i cant see
 play 4 times
|----------------------------|
|----------------------------|
|----------------------------|
|-9-9-9--10-10-10--7-7-7--9--|
|-7-7-7--8--8--8---5-5-5--7--|
|----------------------------|


|-------------------|
|-------------------|
|--9----7----3----2-|
|--9----7----3----2-|
|--7----5----1----0-|
|-------------------|

   look at me!!!
|-------------------|
|-------------------|
|--9----7----10---9-|
|--9----7----10---9-|
|--7----5----8----7-|
|-------------------|


look at you look at me there's no difference i cant see
   4 times
|----------------------------|
|----------------------------|
|----------------------------|
|-9-9-9--10-10-10--7-7-7--9--|
|-7-7-7--8--8--8---5-5-5--7--|
|----------------------------|

|-------------------|
|-------------------|
|--9----7----3----2-|
|--9----7----3----2-|
|--7----5----1----0-|
|-------------------|

   look at me!!!
|-------------------|
|-------------------|
|--9----7----10---9-|
|--9----7----10---9-|
|--7----5----8----7-|
|-------------------|


look at you look at me there's no difference i cant 
|----------------------------|
|----------------------------|
|----------------------------|
|-9-9-9--10-10-10--7-7-7--9--|
|-7-7-7--8--8--8---5-5-5--7--|
|----------------------------|


  see!!!   
|-------------------|
|-------------------|
|--9----7----10---9-|
|--9----7----10---9-|
|--7----5----8----7-|
|-------------------|
Tap to rate this tab
 
# A B C D E F G H I J K L M N O P Q R S T U V W X Y Z