Song name
# A B C D E F G H I J K L M N O P Q R S T U V W X Y Z

Dirty Rotten Imbeciles - Give My Texas Back tab

D.R.I.



song: give my texas back




album: dealing with it




tabbed by Rudy Guzman




guzman_84@hotmil.com


 repeat
|-------------------------------------|
|-------------------------------------|
|-------------------------------------|
|-9-9-9--7-7-7--12-12-12--5-5-5/7/5/7-|
|-7-7-7--5-5-5--10-10-10--3-3-3/5/3/5-|
|-------------------------------------|

0:31
|------------------|
|------------------|
|------------------|
|-9-9-9--7-7-7--12-|
|-7-7-7--5-5-5--10-|
|------------------|

0:36
repeat
|------------------|
|------------------|
|------------------|
|-11--9--14-14-14--|
|-9---7--12-12-12--|
|------------------|



|---------------|
|---------------|
|---------------|
|-11--9---------|
|-9---7--7-7-7--|
|--------5-5-5--|


ending
|--------------------|
|--------------------|
|--------------------|
|-11--9--14-14-14--11|
|-9---7--12-12-12--9-|
|--------------------|
Tap to rate this tab
 
# A B C D E F G H I J K L M N O P Q R S T U V W X Y Z