Song name
# A B C D E F G H I J K L M N O P Q R S T U V W X Y Z

Dirty Rotten Imbeciles - Money Stinks tab

D.R.I.

song: money stinks

transcribed by Rudy Guzman

guzman_84@hotmail.com

tune 2 steps down


Eb|--------------------------------------|
Bb|--------------------------------------|
F#|--------------------------------------|
C#|-12--12-12--12-12-12--8-8-8--10-10-10-|
G#|-10--10-10--10-10-10--6-6-6--8--8--8--|
C#|--------------------------------------|


Eb|-------15-15-----15-15-----15-15------15-15--------------------|
Bb|-------15-15-----15-15-----15-15------15-15--------------------|
F#|--17b--------17b-------17b--------17b-------17p15--------------|
C#|--------------------------------------------------17-17--------|
G#|---------------------------------------------------------------|
C#|---------------------------------------------------------------|

Eb|--------------------------------------|
Bb|--------------------------------------|
F#|--------------------------------------|
C#|-12--12-12--12-12-12--8-8-8--10-10-10-|
G#|-10--10-10--10-10-10--6-6-6--8--8--8--|
C#|--------------------------------------|



Eb|----------------------------------------------|
Bb|----------------------------------------------|
F#|----------------------------------------------|
C#|--12------------------------------------------|
G#|--10---10-------6-----8------10----6-----8----|
C#|----------------------------------------------|


Eb|----------------------------------------------------|
Bb|----------------------------------------------------|
F#|----------------------------------------------------|
C#|----------------------------------------------------|
G#|------------------5--5-5-5--------------------------|
C#|-3--3-3-3--0--1---3--3-3-3--0--1---3--3-3-3--0--1---|
Tap to rate this tab
# A B C D E F G H I J K L M N O P Q R S T U V W X Y Z