Song name
# A B C D E F G H I J K L M N O P Q R S T U V W X Y Z

Dirty Rotten Imbeciles - Reaganomics tab

reaganomics


D.R.I.


TRANSCRIBED BY RUDY GUZMAN


guzman_84@hotmail.com


e:-----------------------------------------------|
B:-----------------------------------------------|
G:-6-4---4---------------------------------------|
D:-----6---6-4-6-4---4---------------------------|
A:-----------------6---6-4-6-4---4---------------|
E:-----------------------------7---7-4-7-4--2-4--|

 2 Times
e:------------------------------------------|
B:------------------------------------------|
G:------------------------------------------|
D:-------------------------------------6666-|
A:-6666-7777-6666-7777-6666-7777-6666--4444-|
E:-4444-5555-4444-5555-4444-5555-4444-------|

e:-------------------------------------5nh-5nh-|
B:---------------------------------------------|
G:---------------------------------------------|
D:---------------------------------------------|
A:-6666-7777-6666-7777-6666-7777-6666----------|
E:-4444-5555-4444-5555-4444-5555-4444----------|

e:------------------------------------------|
B:------------------------------------------|
G:------------------------------------------|
D:-------------------------------------6666-|
A:-6666-7777-6666-7777-6666-7777-6666--4444-|
E:-4444-5555-4444-5555-4444-5555-4444-------|

e:-------------------------------------------|
B:-------------------------------------------|
G:-6-4---4-----------------------------------|
D:-----6---6-4-6-4---4-----------------------|
A:-----------------6---6-4-6-4---4-----------|
E:-----------------------------7---7-4-7-4---|

4 Times
e:------------------------------------------|
B:------------------------------------------|
G:------------------------------------------|
D:-------------------------------------6666-|
A:-6666-7777-6666-7777-6666-7777-6666--4444-|
E:-4444-5555-4444-5555-4444-5555-4444-------|


e:-----------------------------------------------|
B:-----------------------------------------------|
G:-6-4---4---------------------------------------|
D:-----6---6-4-6-4---4---------------------------|
A:-----------------6---6-4-6-4---4---------------|
E:-----------------------------7---7-4-7-4--2-4--|
Tap to rate this tab
# A B C D E F G H I J K L M N O P Q R S T U V W X Y Z