Song name
# A B C D E F G H I J K L M N O P Q R S T U V W X Y Z

Dirty Rotten Imbeciles - Stupid Stupid War tab

stupid stupid war


D.R.I.


TRANSCRIBED BY RUDY GUZMAN


guzman_84@hotmail.com

verse
e:----------------------------------------------------|
B:----------------------------------------------------|
G:----------------------------------------------------|
D:-9-9--3-4--9-9--3-4--9-9--3-4--9-9--3-4-------------|
A:-7-7--1-2--7-7--1-2--7-7--1-2--7-7--1-2-------------|
E:----------------------------------------------------|

e:------------------------------------------------------------------------------14-14-14-14|
B:----------------------------------------------------------------------12-12-12-----------|
G:-----------------------------------------------------------------------------------------|
D:-8-8--3-3--8-8--3-3--8-8--3-3--8-8--3-3--8-8--3-3--8-8--3-3--8-8--3-3--------------------|
A:-6-6--1-1--6-6--1-1--6-6--1-1--6-6--1-1--6-6--1-1--6-6--1-1--6-6--1-1--------------------|
E:-----------------------------------------------------------------------------------------|

e:----------------------------------------------------|
B:----------------------------------------------------|
G:----------------------------------------------------|
D:-9-9--3-4--9-9--3-4--9-9--3-4--9-9--3-4-------------|
A:-7-7--1-2--7-7--1-2--7-7--1-2--7-7--1-2-------------|
E:----------------------------------------------------|

e:------------------------------------------------------------------------------14-14-14-14|
B:----------------------------------------------------------------------12-12-12-----------|
G:-----------------------------------------------------------------------------------------|
D:-8-8--3-3--8-8--3-3--8-8--3-3--8-8--3-3--8-8--3-3--8-8--3-3--8-8--3-3--------------------|
A:-6-6--1-1--6-6--1-1--6-6--1-1--6-6--1-1--6-6--1-1--6-6--1-1--6-6--1-1--------------------|
E:-----------------------------------------------------------------------------------------|

e:-----------------------------------------------------|
B:-----------------------------------------------------|
G:-----------------------------------------------------|
D:-9-9--3-4--9-9--3-4--9-9--3---4-------------------9--|
A:-7-7--1-2--7-7--1-2--7-7--1---2--------------9\---7--|
E:---------------------------------------------7\------|
Tap to rate this tab
# A B C D E F G H I J K L M N O P Q R S T U V W X Y Z