Song name
# A B C D E F G H I J K L M N O P Q R S T U V W X Y Z

Dirty Rotten Imbeciles - Go Die tab

Help us improve GuitareTab! Take a short survey!
Dirty Rotten Imbeciles
Crossover
Go Die

well, here you go

|---------------------------------------|
|---------------------------------------|
|---------------------------------------|
|-2------3-2--6-5~-----2------3-2--4-3~-|
|-2------3-2--6-5~-----2------3-2--4-3~-|
|-0-0000-1-0--4-3~-12/-0-0000-1-0--2-1~-|play many times
    ....                 ....

|----------|
|----------|
|----------|
|-77777777-|
|-77777777-|
|-55555555-|x4
   .. ....

|------------------------------------|
|------------------------------------|
|------------------------------------|
|-8-99999-1010101010-99999--2-----2--|
|-8-99999-1010101010-99999--2--0h2---|
|-6-77777--8-8-8-8-8-77777--0-0------| (main riff)play many times
     ...     . . .    ...  

|------------------------|
|------------------------|
|-------------------22---|
|-----2-----2-----2-22-2-|
|--0h2---0h2---0h2--00-2-|
|-0-----0-----0--------0-| (chorus)repeat


figure the order yourself
sorry no solo
Related for Go Die tab