Guitaretab - guitar tabs
Song name
# A B C D E F G H I J K L M N O P Q R S T U V W X Y Z

Dirty Rotten Imbeciles - Suit And Tie Guy tab

 Band:  Dirty Rotten Imbeciles
Album:  Four Of A Kind
 Song:  Suit And Tie Guy

fb- Full Bend
~-- Whammy Bar
/-- Slide Up
ph- Pinch Harmonic

Hereís the 2 soloís in Suit And Tie Guy. 
The first solo should be 100% correct.
The second solo isnt but its pretty close.
I donít have the end solo... Sorry...


Solo 1
e|-----------------------------------------------------------------|
b|-------------------------------------------------19----19----19--|
g|------------------------------------------16-18fb--18fb--18fb----|
d|-----------------------------------/16-18------------------------|
a|---------14-16-17~~-16-14----------------------------------------|
e|-/16---16-----------------16-14-16-------------------------------|

e|---------19-18-16-------------------------------------------|
b|-19fb19-----------19-16-------------------------------------|
g|------------------------18~~-18-16----16--------------------|
d|-----------------------------------18----18-16----------18--|
a|-----------------------------------------------18-16-18-----|
e|------------------------------------------------------------|
[ Tab from: http://www.guitaretab.com/d/dirty-rotten-imbeciles/69941.html ]
Solo 2
e|--------------------------------------------------|
b|--------------------------------------------------|
g|--------------------------------------------------|
d|--------9-11-9-11-11fb---9-11-9-11-9--------------|
a|-/11-11------------------------------11-9-11------|
e|---------------------------------------------9~~--|

e|-------------------------------------------------------|
b|--------------------------19-16-19-16-19-16-19fb-19fb--|
g|--------16-18-16-18-18fb-------------------------------|
d|-/18-18------------------------------------------------|
a|-------------------------------------------------------|
e|-------------------------------------------------------|

e|-----------------------------------------------------------|
b|-19-16-16-16-16--16----------------------------------------|
g|-------------18b-18b--19-16-16-16----16-16-16-18-16-18-----|
d|----------------------------------18-------------------16--|
a|-----------------------------------------------------------|
e|-----------------------------------------------------------|

e|----------------------------|
b|----------------------------|
g|---------------------20ph---|
d|--------12----11------------|
a|--11------------------------|
e|----------------------------|
Related for Suit And Tie Guy tab