Song name
# A B C D E F G H I J K L M N O P Q R S T U V W X Y Z

Dirty Three - Great Waves tab

I think Mick Turner plays the same three notes for the whole song, the only thing he 
changes is timing. As with most Dirty Three songs, there's almost no consistency throughout 
the track or between versions.

Intro is:

E|--0-----------0--------|
B|-----3-----3-----3-----|
G|--------4-----------4--|
D|-----------------------|
A|-----------------------|
E|-----------------------|

This is played twice

Just before Chan Marshall's vocals kick in, he changes slightly, leaving out a note. My 
best guess is that he repeats this for most of the rest of the song, though it's very 
hard to tell as the guitar becomes very faint under vocals and mandolin.

E|--0--------0-----0-----------------|
B|-----3--------------3-----3--------|
G|--------4--------------4-----------|
D|-----------------------------------|
A|-----------------------------------|
E|-----------------------------------|
Tap to rate this tab
 
# A B C D E F G H I J K L M N O P Q R S T U V W X Y Z