Song name
# A B C D E F G H I J K L M N O P Q R S T U V W X Y Z

Dirty Vegas - Days Go By Acoustic tab

-----------------------------------------------------------------------------
			     Days Go By acoustic  Dirty Vegas
-----------------------------------------------------------------------------
Tabbed by: scott cavin
Email: lt.anarchy762@yahoo.com

Tuning: standard-no capo

Intro and Verse:
e|---5-----3-----3-----3-----3-----5-----5----------------------------------|
B|---6-----3-----3-----3-----3-----6-----5----------------------------------|
G|---7-----4-----5-----4-----3-----7-----5----------------------------------|
D|---7-----5-----5-----5-----5-----7-----7----------------------------------|
A|---5-----5-----3-----5-----5-----5-----7----------------------------------|
E|---5-----3-----3-----3-----3-----5-----5----------------------------------|

Chorus:
e|---5-----5-----3-----3-----3----------------------------------------------|
B|---6-----5-----3-----3-----3----------------------------------------------|
G|---7-----5-----4-----5-----4----------------------------------------------|
D|---7-----7-----5-----5-----5----------------------------------------------|
A|---5-----7-----5-----3-----5----------------------------------------------|
E|---5-----5-----3-----3-----3----------------------------------------------|

Play:
Intro and verse 3 times
Chorus 3 times
Verse 1 time
Chorus 4 times

Listen to the song for the strum pattern.  At the end of the song, let your last strum 
 Enjoy my first tab.
Tap to rate this tab
# A B C D E F G H I J K L M N O P Q R S T U V W X Y Z