Song name
# A B C D E F G H I J K L M N O P Q R S T U V W X Y Z

Disagree - Please tab

INTRO
-----

e|-------------------------------------------------------------------0------|
B|-----0---------------1P0---------0---0---------------0H1P0----------------|
G|-------------2-----2-----2-------------------0-----0-------2--------------|
D|---------2-------2-----------2-----------2-------2-------------0----------|
A|-----0--------------------------------------------------------------------|
E|-------------------------------------3------------------------------------|


e|-----0---------------0H1P0---------0--------------------------------------|
B|-------------1-----1-------1-----------3---------------0-----1-\S-3-------|
G|---------2-------2-------------2---------------0-----0---0----------0-----|
D|-------------------------------------------0-------0-------0----------0---|
A|--------------------------------------------------------------------------|
E|-----1---------------------------------3---------------3------------------|


e|--------------------------------------------------------------------------|
B|-----0-----1-----0---0-----1---0H1P0-----0-----1-----0---0-----1---0H1P0--|
G|-------2---------------0-------------------0---------------0--------------|
D|---------2---------------0-------------------2---------------2------------|
A|---0-----------0---0------------------------------------------------------|
E|---------------------------------------3-----------3---3------------------|


e|--------------------------------------------------------------------------|
B|-------0-----1---0---0-----1---0H1P1-----0-----1-----0---0-----1-\S-3-----|
G|---------2-------------2-------------------0---------------0--------------|
D|-----------3-------------3-------------------0---------------0------------|
A|--------------------------------------------------------------------------|
E|-----1---------1---1-------------------3-----------3---3------------------|


e|--------------------------------------------------------------------------|
B|-----0-----1-----0---0-----1---0H1P0-----0-----1-----0---0-----1---0H1P0--|
G|-------2---------------0-------------------0---------------0--------------|
D|---------2---------------0-------------------2---------------2------------|
A|---0-----------0---0------------------------------------------------------|
E|---------------------------------------3-----------3---3------------------|


e|--------------------------------------------------------------------------|
B|-------0-----1---0---0-----1---0H1P1-----0-----1-----0---0----------------|
G|---------2-------------2-------------------0---------------0--------------|
D|-----------3-------------3-------------------0---------------0------------|
A|---------------------------------------------------------------3---2------|
E|-----1---------1---1-------------------3-----------3---3------------------|


e|-----0---------------0---0-1---0-----0---------------0---0-1-\S-3---------|
B|-------------1-----1-------------1-----------1-----1--------------0-------|
G|---------2-------2-----------------2-----0-------0------------------0-----|
D|--------------------------------------------------------------------------|
A|-----0-------------------------------3------------------------------------|
E|--------------------------------------------------------------------------|


e|-----3---------------3---3-1---0-----0-------------------------------0----|
B|-------------3-----3-------------0-----------0-----0-3-3-3-1---0H1P0------|
G|---------0-------0-----------------0-----0-------0------------------------|
D|--------------------------------------------------------------------------|
A|--------------------------------------------------------------------------|
E|-----3-------------------------------0------------------------------------|


e|---0---------------------------------0------------------------------------|
B|-----------1-----1-3-1-1-0---1---1-----------1-----1-1H3P1-1-0---1---1----|
G|-------2-------2---------------0---------0-------0-----------------0------|
D|--------------------------------------------------------------------------|
A|---0---------------------------------3------------------------------------|
E|--------------------------------------------------------------------------|


e|-----3---------------3---3-5---7-----0-------------------------------0----|
B|-------------3-----3-------------0-----------0-----0-3-3-3-1---0H1P0------|
G|---------0-------0-----------------0-----0-------0------------------------|
D|--------------------------------------------------------------------------|
A|--------------------------------------------------------------------------|
E|-----3-------------------------------0------------------------------------|


*Some parts of the intro repeats in the verse
*Chords used in verse are: Am, C, G, Em

cherngyow@hotmail.com <-- Comments here.

Thanks for checking out this tab!
Tap to rate this tab
 
# A B C D E F G H I J K L M N O P Q R S T U V W X Y Z