Song name
# A B C D E F G H I J K L M N O P Q R S T U V W X Y Z

Disagree - Suicide Note tab

Intro Lead


(figure 1)     HO      HO            
|--5----5---5---5--5---5-7--7--7-5---5--5-----------------------------------------|
|--0-----------------0-----0--------------0---------------------------------------|
|--7-7----7---7---7-7-----7---7----7---7-7----------------------------------------|
|---------------------------------------------------------------------------------|
|---------------------------------------------------------------------------------|
|---------------------------------------------------------------------------------|


Intro Lead
(figure 2)                HO         HO
|-----9---9---9---9--9-9-9-10---10-10-9---9--9------------------------------------|
|------------------------------0-----------------0--------------------------------|
|---7---7---7---7---7-7-------7---7-----7---7--7----------------------------------|
|---------------------------------------------------------------------------------|
|---------------------------------------------------------------------------------|
|---------------------------------------------------------------------------------|


Intro Lead
(figure 3)     HO             HO          HO
|--9-10---10--10-9---9--9-----9-10---10--10-9---9--9------------------------------|
|--------0----------------0---------0----------------0----------------------------|
|-------7----7-----7---7-7---------7----7-----7---7-7-----------------------------|
|---------------------------------------------------------------------------------|
|---------------------------------------------------------------------------------|
|---------------------------------------------------------------------------------|


Intro Lead
(figure 4)
|--9-7-5---5---5--5-----5---5---5---5--5------------------------------------------|
|-------------------0--------------------0----------------------------------------|
|--7-7-7-7---7---7-7--6---6---6---6---6-6-----------------------------------------|
|---------------------------------------------------------------------------------|
|---------------------------------------------------------------------------------|
|---------------------------------------------------------------------------------|


Intro Lead
(figure 5)
|----------5--5--5---5---------------5--5--5---5----------------------------------|
|--HO----0-------0-------0---HO----0-------0-------0------------------------------|
|--6-7-7----7--7-6-6---6-----6-7-7----7--7-6-6---6--------------------------------|
|---------------------------------------------------------------------------------|
|---------------------------------------------------------------------------------|
|---------------------------------------------------------------------------------|


Intro Lead
(figure 6)
|---5-5-5-5-5-5-5-5-7-7-7-7-9-9-9-9-----------------------------------------------|
|---------------------------------------------------------------------------------|
|--7-7-7-7-7-7-7-7-7-7-7-7-9-9-9-9------------------------------------------------|
|---------------------------------------------------------------------------------|
|---------------------------------------------------------------------------------|
|---------------------------------------------------------------------------------|


Distortion Intro
(repeat figure 1 and 4)


Verse
Trouble follows me to my doors steps…
|---------------------------------------------------------------------------------|
|---------------------------------------------------------------------------------|
|---------------------------------------------------------------------------------|
|--9---9--9-9--9-9---9--9---5---5--5-5--5-5---5--5--------------------------------|
|--9---9--9-9--9-9---9--9---5---5--5-5--5-5---5--5--------------------------------|
|--7---7--7-7--7-7---7--7---3---3--3-3--3-3---3--3--------------------------------|


Verse
I don’t want to know
|---------------------------------------------------------------------------------|
|---------------------------------------------------------------------------------|
|--7---7--7-7--7-7---7--7---------------------------------------------------------|
|--7---7--7-7--7-7---7--7---7---7--7-7--7-7---7--7--------------------------------|
|--5---5--5-5--5-5---5--5---7---7--7-7--7-7---7--7--------------------------------|
|---------------------------5---5--5-5--5-5---5--5--------------------------------|


Chorus
Left my suicide note on the door…
|---------------------------------------------------------------------------------|
|---------------------------------------------------------------------------------|
|-----------------7-7-0------sld---------------------------------------------------|
|--9-9-0-5--5-5-0-7-7-0-7--7-7-9--------------------------------------------------|
|--9-9-0-5--5-5-0-5-5-0-7--7-7-9--------------------------------------------------|
|--7-7-0-3--3-3-0-------5--5-5-7--------------------------------------------------|


Break


(Bass)
|---------------------------------------------------------------------------------|
|---------------------------------------------------------------------------------|
|---------------------------------------------------------------------------------|
|---------------------------------------------------------------------------------|
|----9---9---------5---5--4-------------------------------------------------------|
|--7---7----7----3---3------------------------------------------------------------|

Solo

E|-------------------------------------------------------------||
B|-5-----5----5-----5-7--5-----5-------5b7-(5)-----------------||
G|---------7---------------------7-4-7---------7---------------||Repeat 2x
D|-------------------------------------------------------------||
A|-------------------------------------------------------------||
E|-------------------------------------------------------------||

E|--7-5---7--5p7h5---5-7-5---7-5-7b9---------------------------||
B|------7----------7-------7-----------------------------------||
G|-------------------------------------------------------------||
D|-------------------------------------------------------------||
A|-------------------------------------------------------------||
E|-------------------------------------------------------------||


E|--7-5---7--5p7h5---5-7-5---7-5-7b9-7b9-7b9-7b9-7-7-9-12-12-12-12-12--||
B|------7----------7-------7-------------------------------------------||
G|---------------------------------------------------------------------||
D|---------------------------------------------------------------------||
A|---------------------------------------------------------------------||
E|---------------------------------------------------------------------||

                                                  {    Repeat      }
E|-10-10-12-12-12-12-12-10-10-12b14-14-12-12-10-10-5---5---5---5-5---||
B|--------------------------------------------------5-5-5-5-5-5-5------||
G|---------------------------------------------------6---6---6---------||
D|---------------------------------------------------------------------||
A|---------------------------------------------------------------------||
E|---------------------------------------------------------------------||
Tap to rate this tab
# A B C D E F G H I J K L M N O P Q R S T U V W X Y Z