Song name
# A B C D E F G H I J K L M N O P Q R S T U V W X Y Z

Disarmonia Mundi - Common State Of Inner Violence tab

-------------------------------------------------------------------------------
	   Common State Of Inner Violence - Disarmonia Mundi
-------------------------------------------------------------------------------


Tuning B E A D F# B

Riff 1 (0:53) play 4 times
|--------------------------------------------------------------------|
|--------------------------------------------------------------------|
|--------------------------------------------------------------------|
|--------------------------------------------------------------------|
|-5h7-----7h8-----8h10-----10h11----------5h7-----7h8-10p7-8h10------|
|-----0-0-----0-0------0-0-------00000000-----0-0---------------0-0--|
      . .     . .      . .       ........     . .               . .


Riff 2 (1:08) play twice
|---------------------------------------------------------------|
|---------------------------------------------------------------|
|---------------------------------------------------------------|
|---------------------------------------------------------------| gtr 1
|----5--8--7-5-7-5h7-----7h8-----8h10-----10h11----5--8--7-5-7--|
|-6------------------0-0-----0-0------0-0-------6---------------|
                     . .     . .      . .

|---------------------------------------------------------------|
|---------------------------------------------------------------|
|---------------------------------------------------------------|
|----------------3h5-----5h6-----6h8-----8h10-------------------| gtr 2
|----5--8--7-5-7-----------------------------------5--8--7-5-7--|
|-6------------------0-0-----0-0-----0-0--------6---------------|
                     . .     . .     . .


Riff 3 (1:13) play 8 times * indicates on END TIME ONLY
|-----------------------------------------|-on fourth and eighth-time--|
|-----------------------------------------|----------------------------|
|-----------------------------------------|----------------------------|
|-----------------------------------------|------------------------*---|
|-5h7-----7h8-----8h10-----10h11----------|-5h7-----7h8-----3h5-3--2---|
|-----0-0-----0-0------0-0-------00000000-|-----0-0-----0-0-----1--0---|
      . .     . .      . .       ........       . .     . .

Riff 4 (1:28) play twice
|-----------------------------------------------|
|-----------------------------------------------|
|-----------------------------------------------|
|-----------------------------------------------|
|-10-8---8----10-8---8----8-7---7----8-7---7----|
|------0---0-------0---0------0---0------0---0--|
       .   .       .   .      .   .      .   .

Fill 1 (1:34)
|---------------|
|---------------|
|-5-4-2-1-------|
|---------3-2---|
|---------------|
|---------------|

Riff 5a (1:35)
|---------------------------------------------------------------------|
|---------------------------------------------------------------------|
|---------------------------------------------------------------------|
|---------------------------------------------------------------------|
|-7h9-----5h7-----7h9-----8h11-----7h9-----5h7-----7h9-----8h9p8h8p8--|
|-----000-----000-----000------000-----000-----000-----000------------|
      ...     ...     ...      ...     ...     ...     ...

Riff 5b (1:39)
|-------------------------------------------------------|
|-------------------------------------------------------|
|-------------------------------------------------------|
|-------------------------------------------------------|
|-7h9-----5h7-----7h9-----8h11-----7h9-----5h7---7---7--|
|-----000-----000-----000------000-----000-----0---0----|
      ...     ...     ...      ...     ...     .   .

Riff 5a x 1 (1:42)
Riff 5b x 1 (1:46)

Riff 6 (1:49) play twice
|----------------------------------------------------------------------------
|----------------------------------------------------------------------------
|----------------------------------------------------------------------------
|-9-------9-------9-------9-------7-------7--------7-------4-------4---------
|-7-7-7-7-7-7-7-7-7-7-7-7-7-7-7-7-5-5-5-5-5--5-5-5-5-5-5-5-2-2-2-2-2---2-2-2-
|----------------------------------------------------------------------------
    . . .   . . .   . . .   . . .   . . .    . . .   . . .   . . .     . . .

-----------------------------------|
-----------------------------------|
-----------------------------------|
-4-------5-------5--------5--------|
-2-2-2-2-3-3-3-3-3--3-3-3-3-3-3-3--|
-----------------------------------|
   . . .   . . .    . . .   . . .


Riff 3 x 1 (2:04)
Riff 4 x 1 (2:20)
Riff 5a x 1 (2:34)
Riff 5b x 1 (2:37)
Riff 5a x 1 (2:41)
Riff 5b x 1 (2:45)
Riff 6 x 2 (2:48)

Fill 2 (3:17)
|--------------------------------------------------------------------------|
|-------3---5---3---------3---5---3---------3---5---3---------3---5---3----|
|---4-------------4---4-------------4---4-------------4---4-------------4--|
|--------------------------------------------------------------------------|
|--------------------------------------------------------------------------|
|-0---0---0---0-----0---0---0---0-----0---0---0---0-----0---0---0---0------|
  .   .   .   .     .   .   .   .     .   .   .   .     .   .   .   .

|--------------------------------------------------------------------------|
|--------------------------------------------------------------------------|
|--------------------------------------------------------------------------|
|---------------------------------------------------------5-------7--------|
|-------------------------------------2-2------7----------3-------5--------|
|-------------------------------------0-0--0-0-5--------3------------------|
                                           . .          .

Riff 7 (3:24) play 4 times
|--------------------|
|--------------------|
|--------------------|
|---5---6---5----3-5-|
|---7---8---7----5-7-|
|-0---0---0---0------|
  .   .   .   .

Riff 8 (3:30) play twice
|-------------------------------------------------------------------|
|-----------3-------------3-----------------------------------------|
|-------------------------------------------------------------------|
|---5---4-------5-4---4-------5-4---5---6---5----3-5---5---5--------|
|-2---2---2---2-----2---2---2-------7---8---7----5-7---7---7---2ph--|
|---------------------------------0---0---0---0------0---0---0------|
  .   .   .   .     .   .   .     .   .   .   .      .   .   .

Solo (3:45)

Riff 9 (3:45) play twice
|-----------------------------------------------------------|
|-----------------------------------------------------------|
|-----------------------------------------------------------|
|---5---6---5----3-5---5-------5----3-5---5---6---5---5-----|
|---7---8---7----5-7---7---6---7----5-7---7---8---7---3-----|
|-0---0---0---0------0---0-8-0---0------0---0---0---0-------|
 .   .   .   .      .   .   .   .      .   .   .   .


Riff 8 x 1 (3:59)

End of solo (4:11)

Fill 3 (4:12)
|--------------|
|--------------|
|--------------|
|--------------|
|--------------|
|-0000---------|
  ....

Riff 3 x 1 (4:14)
Riff 4 x 1 (4:25)
Fill 1 x 1 (4:31)
Riff 5a x 1 (4:32)
Riff 5b x 1 (4:36)
Riff 5a x 1 (4:39)
Riff 5b x 1 (4:43)
Riff 6 x 1 (4:46)
Vocals and keyboards (5:01)
End (5:19)
http://www.doomish.com
Tap to rate this tab
# A B C D E F G H I J K L M N O P Q R S T U V W X Y Z