Song name
# A B C D E F G H I J K L M N O P Q R S T U V W X Y Z

Disarmonia Mundi - Swallow The Flames tab

-------------------------------------------------------------------------------
		      Swallow the Flames - Disarmonia Mundi
-------------------------------------------------------------------------------

Tuning B E A D F# B


Riff 1 (0:00) play twice
|----------------------------------------------------------------|
|----------------------------------------------------------------|
|----------------------------------------------------------------|
|----------------------------------------------------------------|
|-11--------11--------11-----11--------11--------11--------------|
|----0--0-0----0--0-0----0-0----0-0--0----0-0--0----0-0-000-000--|
                                                        ... ...

Riff 2a (0:09)
|-------------------------------------------------------------------|
|-------------------------------------------------------------------|
|-------------------------------------------------------------------|
|------------------------------------------------------------7------|
|-7---10---6---9---7---------------7---10---6---9---10---9-------10-|
|---0----0---0---0---0-00000-0-0-0---0----0---0---0----0---0---0----|
    .    .   .   .   . ..... . . .   .    .   .   .    .   .   .

Riff 2b (0:13)
|----------------------------------------------------------------|
|----------------------------------------------------------------|
|----------------------------------------------------------------|
|----------------------------------------------------------------|
|-7---10---6---9---7---------------7---10---6---9----------------|
|---0----0---0---0---0-00000-0-0-0---0----0---0---000--000--000--|
    .    .   .   .   . ..... . . .   .    .   .   ...  ...  ...

Riff 3a (0:18)
|-------------------------------------------------------------------|
|-------------------------------------------------------------------|
|-------------------------------------------------------------------|
|-------------------------------------------------------------------|
|-7-----10---6-----7-----10---6-----7-----10---6-----7--------------|
|---0-0----0---0-0---0-0----0---0-0---0-0----0---0-0---00000-0-0-0--|
    . .    .   . .   . .    .   . .   . .    .   . .   ..... . . .

Riff 3b (0:22)
|--------------------------------------------------------------------|
|--------------------------------------------------------------------|
|--------------------------------------------------------------------|
|----------------------------------------------------8--8--8--8--8~--|
|-7-----10---6-----7-----10---6-----7-----10---6-----7--7--7--7--7~--|
|---0-0----0---0-0---0-0----0---0-0---0-0----0---0-0-----------------|
    . .    .   . .   . .    .   . .   . .    .   . .


Riff 4 (0:27) play twice
|---------------------------------------------------------------|
|---------------------------------------------------------------|
|---------------------------------------------------------------|
|---------------------------------------------------------------|
|-10---------10-9-----------10-----------10-9-----6-7-----9-10--|
|----0-000-0------0-000-000----0-000-0-0------0-0-----0-0-------|
     . ... .      . ... ...    . ... . .      . .   .


Riff 5 (0:36) play 4 times
|------------------------------------------------------|
|------------------------------------------------------|
|------------------------------------------------------|
|-9------9-9----------------5--5---5-5---5-5-5--5-4-4--|
|-7------7-7---7---7--7-7---3--3---3-3---3-3-3--3-2-2--|
|----0-0-----0-5-0-5--5-5-0------0-----0---------------|
     . .     .   .        .      .     .

Riff 2a x 1 (0:54)
Riff 2b x 1 (0:58)
Riff 3a x 1 (1:03)
Riff 3b x 1 (1:07)
Riff 4 x 1 (1:12)

Riff 6 (1:22) play twice
|----------------------------------------------|
|----------------------------------------------|
|----------------------------------------------|
|----------------------------------------------|
|----2----2----2----5h7----2----2-----10"-9"---|
|-0000-0000-0000-000----0000-0000-0"-----------|
  ...  ...  ...  ...    ...  ...  .   .   .

Riff 7 (1:31) play twice
|-----------------------------------------------------------------|
|-----------------------------------------------------------------|
|-----------------------------------------------------------------|
|-----9-9-----9-9-----9-9-----9-9-----9-9----9-9-----9-9-----9-9--| gtr 1
|-7-7-----7-7-----------------------------------------------------|
|-----------------5-5-----5-5-----8-8----8-8----7-7------7-7------|

|-----------------------------------------------------------------|
|-----------------------------------------------------------------|
|-----------------------------------------------------------------|
|-----9-9-----9-9-----4-4-----4-4-----5-5----5-5-----9-9-----9-9--| gtr 2
|-7-7-----7-7-----------------------------------------------------|
|-----------------5-5-----5-5-----8-8----8-8----7-7------7-7------|


Fill 1 (1:40)
|---------------------------|
|------8-7------------------|
|----------8-5--------------|
|-9------------5-5-4--5-5h7-|
|-7-2----------3-3-2--3-----|
|---0-----------------------|

|---------------------------|
|------8-7------------------|
|----------8-5----------5h7-|
|-9------------5-5-4--5-----|
|-7-2----------3-3-2--3-----|
|---0-----------------------|

Riff 5 x 1 (1:44)

Riff 8a (2:03)
|-------------------------------|
|-------------------------------|
|-------------------------------|
|-------5-3-2-0-5~----------8---| gtr 1
|-7-7---------------7-7---------|
|-------------------------0-----|
                          .
|-------------------------------|
|-------------------------------|
|-------------------------------|
|-------5-3-2-0-5~--------------| gtr 2
|-7-7---------------7-7-----7---|
|-------------------------0-----|
                          .

Riff 8b (2:07)
|--------------------------------------|
|--------------------------------------|
|--------------------------------------|
|-------5-3-2-0-5~------------8--------|
|-7-7---------------7-7-------------5--|
|-------------------------0-0---0-0-3--|
                          . .   . .
|--------------------------------------|
|--------------------------------------|
|--------------------------------------|
|-------5-3-2-0-5~---------------------|
|-7-7---------------7-7-------7-----5--|
|-------------------------0-0---0-0-3--|
                          . .   . .

Riff 8a x 1 (2:12)
Riff 8b x 1 (2:17)

Riff 9 (2:22) play twice
|----------------------------------------------------|
|----------------------------------------------------|
|----------------------------------------------------|
|-------------------------------------------8-8-8-8--|
|-7-------------7---6---7----------------------------|
|-0-000-000-000---0---0---0-6-0-000-000-000-6-6-6-6--|
    ... ... ...   .   .   .     ... ... ...

Riff 8a x 1 (2:31)
Riff 8b x 1 (2:36)

Under Solo:
Riff 2a x 1 (2:40)
Riff 2b x 1 (2:45)
Riff 3a x 1 (2:49)
Riff 3b x 1 (2:54)
Riff 4 x 1 (2:58)

Under solo:
Riff 5 x 2 (3:07)
End
http://www.doomish.com

Tap to rate this tab
 
# A B C D E F G H I J K L M N O P Q R S T U V W X Y Z