Song name
# A B C D E F G H I J K L M N O P Q R S T U V W X Y Z

Disarmonia Mundi - Swallow The Flames tab

---------------------------------------------------------------------------
	      Swallow The Flames Solo - Disarmonia Mundi
----------------------------------------------------------------------------
Tabbed by:twguitarplaya69
Email:woogyboogy_9@hotmail.com

Tuning: B standard
F*** the outro solo that $hit'$ monster

b|----------------------------------8----------------------------------8---|
f#|------------------------10-11-12---12-11-10----------------10-11-12-----|
d|---///9--11-12---9-11-12---------------------12-11--9-11-12--------------|
A|-------------------------------------------------------------------------|
E|-------------------------------------------------------------------------|
B|-------------------------------------------------------------------------|

b|-------------------12---14-15--17^--15-----------------------------------|
f#|--12-11-10-----------------------------19--17h19--15--19-17-16-15-------|
d|------------12-11--------------------------------------------------------|
A|-------------------------------------------------------------------------|
E|-------------------------------------------------------------------------|
B|-------------------------------------------------------------------------|

b|---------15--------------------------------------------------------------|
f#|--17-19-----------------------------------------------------------------|
d|-------------------------------------------------------------------------|
A|-------------------------------------------------------------------------|
E|-------------------------------------------------------------------------|
B|-------------------------------------------------------------------------|

this is my first tab so dont judge i was bored and my friend wanted it so BAM here it is!!!!!!

************************************

| /   slide up
| \   slide down
| h   hammer-on
| p   pull-off
| ~   vibrato
| +   harmonic
| x   Mute note
| b   Bend
| pb  Pre-bend
| br  Bend release
| pbr Pre-bend release
| brb Bend release bend

************************************
Tap to rate this tab
# A B C D E F G H I J K L M N O P Q R S T U V W X Y Z