Song name
# A B C D E F G H I J K L M N O P Q R S T U V W X Y Z

Discharge - Maimed And Slaughtered tab

-------------------------------------------------------------------------------
Maimed And Slaughtered - Discharge
Why
-------------------------------------------------------------------------------
Tabbed by: axeslash
Email: holmzito@yahoo.com

Tuning:

e|---------------------------------------------------------------------|
B|---------------------------------------------------------------------|
G|---------------------------------------------------------------------|
D|---------------------------------------------------------------------|
A|-6-6-6-6-6-6-6-6-6-6-6-6-6-6-6-6-10-10-9-9-9-9-9-9-10-10-9-9-9-9-9-9-|
E|-4-4-4-4-4-4-4-4-4-4-4-4-4-4-4-4--8--8-7-7-7-7-7-7--8--8-7-7-7-7-7-7-| x8

e|---------------------------------| At this point, it's nothing but slides,
B|---------------------------------| a few pickscrapes, and similar random
G|---------------------------------| noises.
D|---------------------------------|
A|-6-6-6-6-6-6-6-6-6-6-6-6-6-6-6-6-|
E|-4-4-4-4-4-4-4-4-4-4-4-4-4-4-4-4-|

e|-------------------------------------|
B|-------------------------------------|
G|-------------------------------------|
D|-------------------------------------|
A|-10-10-9-9-9-9-9-9-10-10-9-9-9-9-9-9-|
E|--8--8-7-7-7-7-7-7--8--8-7-7-7-7-7-7-|

e|---------------------------------------------------------------------|
B|---------------------------------------------------------------------|
G|---------------------------------------------------------------------|
D|---------------------------------------------------------------------|
A|-6-6-6-6-6-6-6-6-6-6-6-6-6-6-6-6-10-10-9-9-9-9-9-9-10-10-9-9-9-9-9-9-|
E|-4-4-4-4-4-4-4-4-4-4-4-4-4-4-4-4--8--8-7-7-7-7-7-7--8--8-7-7-7-7-7-7-| x7

e|-----------------------------------------------------------------------|
B|-----------------------------------------------------------------------|
G|-----------------------------------------------------------------------|
D|-----------------------------------------------------------------------|
A|-6-6-6-6-6-6-6-6-6-6-6-6-6-6-6-6-10-10-9-9-9-9-9-9-10-10-9-9-9-9-9-9-6-|
E|-4-4-4-4-4-4-4-4-4-4-4-4-4-4-4-4--8--8-7-7-7-7-7-7--8--8-7-7-7-7-7-7-4-|


| /  slide up
| \  slide down
| h  hammer-on
| p  pull-off
| ~  vibrato
| +  harmonic
| x  Mute note
===============================================================================
Tap to rate this tab
# A B C D E F G H I J K L M N O P Q R S T U V W X Y Z