Song name
# A B C D E F G H I J K L M N O P Q R S T U V W X Y Z

Discharge - Fight Back tab

-------------------------------------------------------------------------------
			     Fight Back - Discharge
-------------------------------------------------------------------------------
Tabbed by:Dave
Email:dave_robinson25@msn.com

Tuning:Standard

Intro/Verse

e|---------------------------------------------------------------------------|
B|---------------------------------------------------------------------------|
G|----8-8-8-8-8-8--6--5------------------------------------------------------|
D|----8-8-8-8-8-8--6--5------------------------------------------------------|
A|----6-6-6-6-6-6--4--3------------------------------------------------------|
E|---------------------------------------------------------------------------|

Chorus

e|---------------------------------------------------------------------------|
B|---------------------------------------------------------------------------|
G|---------------------------------------------------------------------------|
D|---4/5---------------------------------------------------------------------|
A|---4/5---------------------------------------------------------------------|
E|---2/3---------------------------------------------------------------------|
Tap to rate this tab
 
# A B C D E F G H I J K L M N O P Q R S T U V W X Y Z