Discharge - I Wont Subscribe tab

-------------------------------------------------------------------------------
			     I WONT SUBSCRIBE - Discharge
-------------------------------------------------------------------------------
Tabbed by: James Stoten (stoten123)
Email: james_stoten@hotmail.co.uk

Tuning: E Standard

 Song consists of just 2 riffs.

   Riff 1:
e|-----------------------------------|
B|-----------------------------------|
G|--8-8-8-8-111111116-6-6-6-9-9-9-9--|
D|--8-8-8-8-111111116-6-6-6-9-9-9-9--|
A|--6-6-6-6-9-9-9-9-4-4-4-4-7-7-7-7--|
E|-----------------------------------|


   Riff 2:
e|-----------------------------------|
B|-----------------------------------|
G|--8---------------12------14-------|
D|--8---------------12------14-------|
A|--6---------------10------12-------|
E|-----------------------------------|

Finish on the A# 
Tap to rate this tab
 
# A B C D E F G H I J K L M N O P Q R S T U V W X Y Z