Song name
# A B C D E F G H I J K L M N O P Q R S T U V W X Y Z

Discharge - They Lie You Die tab

intro
e||----------------------|
b||----------------------|
g||----------------------|
d||----------------2-3-2-|
a||----------------2-3-2-|
e||-00000000000000-0-1-0-|

e||-------------------------------------------------|
b||-------------------------------------------------|
g||-------------------------12-11-10~~~-9--12-11-10-|
d||----------------2-3-2~~~-12-11-10~~~-9--12-11-10-|
a||----------------2-3-2~~~-10-9--8~~~~-7--10-9--8--|
e||-00000000000000-0-1-0~~~-------------------------|

then
e||-------------------------|
b||-------------------------|
g||-------------------------|
d||-------------------3-3-2-|
a||-------------------3-3-2-|
e||-00000000000000000-1-1-0-|

"They lie, You die"
e||-------------|
b||-------------|
g||-9--12-11-10-|
d||-9--12-11-10-|
a||-7--10-9--8--|
e||-------------|
Tap to rate this tab
# A B C D E F G H I J K L M N O P Q R S T U V W X Y Z