Song name
# A B C D E F G H I J K L M N O P Q R S T U V W X Y Z

Discharge - State Violence State Control tab

-------------------------------------------------------------------------------
		 State Violence State Control - Discharge
-------------------------------------------------------------------------------
Tabbed by:Dave
Email:dave_robinson25@msn.com

Tuning:Standard

Intro/Verse

e|---------------------------------------------------------------------------|
B|---------------------------------------------------------------------------|
G|---7-7-7-7-7-7-7-7-7-7-7-7-7-----10----------------------------------------|
D|---7-7-7-7-7-7-7-7-7-7-7-7-7-----10--10--9---------------------------------|
A|---5-5-5-5-5-5-5-5-5-5-5-5-5-----8---10--9---------------------------------|
E|-------------------------------------8---7---------------------------------|
       * * * * * * * * * * * *

Chorus

e|---------------------------------------------------------------------------|
B|---------------------------------------------------------------------------|
G|---------------------------------------------------------------------------|
D|----7-7-7-7--10-10---------------------------------------------------------|
A|----7-7-7-7--10-10---------------------------------------------------------|
E|----5-5-5-5--8--8----------------------------------------------------------|
Tap to rate this tab
 
# A B C D E F G H I J K L M N O P Q R S T U V W X Y Z