Song name
# A B C D E F G H I J K L M N O P Q R S T U V W X Y Z

Discharge - Realities Of War tab

-------------------------------------------------------------------------------
			  Realities of war - Discharge
-------------------------------------------------------------------------------
Tabbed by:Dave
Email:dave_robinson25@msn.com

Tuning:Standard

Intro/Verse

e|---------------------------------------------------------------------------|
B|---------------------------------------------------------------------------|
G|------7-7-7-7-7-7-7-6-5-6--------------------------------------------------|
D|------7-7-7-7-7-7-7-6-5-6--------------------------------------------------|
A|------5-5-5-5-5-5-5-4-3-4--------------------------------------------------|
E|---------------------------------------------------------------------------|

Chorus

e|---------------------------------------------------------------------------|
B|---------------------------------------------------------------------------|
G|-----3---------------------------------------------------------------------|
D|-----3---------------------------------------------------------------------|
A|-----1---------------------------------------------------------------------|
E|---------------------------------------------------------------------------|
Tap to rate this tab
 
# A B C D E F G H I J K L M N O P Q R S T U V W X Y Z