Song name
# A B C D E F G H I J K L M N O P Q R S T U V W X Y Z

Discharge - Nightmare Continues tab

Tabbed by sacek.


Verse:

e|-----------------------------------------------------------------|
B|-----------------------------------------------------------------|
G|---6--6--6------8--8--8-----9--9--9------------------------------|
D|---6--6--6------8--8--8-----9--9--9-------10--11--10--11---------|
A|---4--4--4------6--6--6-----7--7--7-------10--11--10--11---------|
E|------------------------------------------8---9---8---9----------|


Refrain:

e|-----------------------------------|
B|-----------------------------------|
G|---6-----9--9------8--8--8--8------|
D|---6-----9--9------8--8--8--8------|
A|---4-----7--7------6--6--6--6------|
E|-----------------------------------|


That's all! I don't know tabbed solos.
Tap to rate this tab
 
# A B C D E F G H I J K L M N O P Q R S T U V W X Y Z