Song name
# A B C D E F G H I J K L M N O P Q R S T U V W X Y Z

Disciple - Into Black tab

SONG: INTO BLACK
BAND: DISCIPLE
ALBUM: DISCIPLE

TUNING: C# (C# G# C# F# A# D#)


INTRO

GTR I
D#[------------------------------------------|
A#[------------------------------------------|
F#[-----10-----------------------------------|
C#[--O--10--10--0----------------------------|
G#[--O--8---10--0----------------------------|
C#[--O--8---10--0----------------------------|

GTR II
D#[---------------------------------------------------|
A#[---------------------------------------------------|
F#[--10--3--12-10-9-7---10--17--12-10-9-7-------------|
C#[---------------------------------------------------|
G#[--8---1--10-8--7-5---8---15--10-8--7-5-------------|
C#[---------------------------------------------------|


NOT MUCH SUBSTANTIAL STUFF IN VERSE

CHORUS

D#[--------------------------------------------------------|
A#[--------------------------------------------------------|
F#[--10-------10----------10-9-7-9--9---10-10---12---------|
C#[--10---10--10---10--0-----------------------------------|
G#[--8----10--8----10--0--8--7-5-7--7-s-8--8--s-10---------|
C#[--8----10--8----10--0-----------------------------------|
			    |_____|
			   PICK ONCE

INTRO

VERSE

CHORUS

INTRO
Tap to rate this tab
# A B C D E F G H I J K L M N O P Q R S T U V W X Y Z