Song name
# A B C D E F G H I J K L M N O P Q R S T U V W X Y Z

Disciple - Big Bad Wolf tab

Artist: Disciple
Song: Big Bad Wolf
Album:This Might Sting A Little
tabbed by Alex Miclea (alex_omul@yahoo.Com)

This is the corect version, i'm 100% sure!

riff1
Eb---------------------------------|
Bb---------------------------------|
GB---------------------------------|
Db-0--5--0--3--0--6--0--3--0--3/5--|
Ab-0--5--0--3--0--6--0--3--0--3/5--|
Db-0--5--0--3--0--6--0--3--0--3/5--|

riff2
Eb------------------------------------------------------------|
Bb------------------------------------------------------------|
GB------------------------------------------------------------|
Db-0--0---0-0---0-0-0-0---0-0---0-0-0-0---0-0---0-0-0-0---0-0-|
Ab-0--0---0-0---0-0-0-0---0-0---0-0-0-0---0-0---0-0-0-0---0-0-| (palm muted)
Db-0--0---0-0---0-0-0-0---0-0---0-0-0-0---0-0---0-0-0-0---0-0-|

riff3
Eb--------------------------------------|
Bb--------------------------------------|
GB--------------------------------------|
Db-0--0---0-0-0-0---0-0-0-0---0-0-0-0-3-|
Ab-0--0---0-0-0-0---0-0-0-0---0-0-0-0-3-|
Db-0--0---0-0-0-0---0-0-0-0---0-0-0-0-3-|

riff4
Eb-----------------------------------------------------|
Bb-----------------------------------------------------|
GB-----------------------------------------------------|
Db-3--3---6--3-3--3-3---6--3-3-3-3---6--3-3--3-3-6/7/6-|
Ab-3--3---6--3-3--3-3---6--3-3-3-3---6--3-3--3-3-6/7/6-| (palm muted)
Db-3--3---6--3-3--3-3---6--3-3-3-3---6--3-3--3-3-6/7/6-|

riff5
Eb--------------------------------------------------------         ---|
Bb--------------------------------------------------------         ---|
GB--------3-------------3------------3------------3/4/3---         ---|
Db-0--0---3--0-0--0-0---3--0-0-0-0---3--0-0--0-0--3/4/3---         -1-|
Ab-0--0---1--0-0--0-0---1--0-0-0-0---1--0-0--0-0--1/2/1---         -1-|
Db-0--0------0-0--0-0------0-0-0-0------0-0--0-0----------end with -1-|

riff6
Eb-----------------------------------------------|
Bb-----------------------------------------------|
GB-----------------------------------------------|
Db-0-0---0-0-0---0-0-0-0-0---0-0-0-0---0-0---0-0-|
Ab-0-0---0-0-0---0-0-0-0-0---0-0-0-0---0-0---0-0-|
Db-0-0---0-0-0---0-0-0-0-0---0-0-0-0---0-0---0-0-| (you have to figure out the rythm)

Solo
Eb---------------------------------------------------|
Bb---------------------------------------------------|
GB---------------------------------------------------|
Db----------------------3--5--6--5----3--5--3--------|
Ab--3h5---3--5--6--5------------------------------5--|
Db---------------------------------------------------|

Order
riff1
riff2
riff3
riff4
riff5
riff6
riff2
riff3
riff4
riff4 (with no palm mute)
riff5
riff6
Solo
riff6
riff1

That's it :) comments and suggestions at alex_omul@yahoo.com
Tap to rate this tab
# A B C D E F G H I J K L M N O P Q R S T U V W X Y Z