Song name
# A B C D E F G H I J K L M N O P Q R S T U V W X Y Z

Disciple - Purpose To Melody tab

-----------------------------------------------------------------------
			PURPOSE TO MELODY - Disciple
-----------------------------------------------------------------------
Tabbed by:Nickman022
Email:nickman02@charter.net

Tuning: Drop C (C-G-C-F-A-D)

| /  slide up
| \  slide down
| h  hammer-on
| p  pull-off
| ~  vibrato
| +  harmonic
| x  Mute note
| *  Pinch Harmonic
| =  Palm mute
| b  Bend
| r  Release

INTRO 
d|--------------------------------------------------------------------|
A|--------------------------------------------------------------------|
F|--------4---4---4---4-----------3---3---3---3-----------5---5---5--5|
C|4br-0h2---2---2---2-----4br-0h2---2---2---2-----4br-0h2---2---2---2-|
G|--------------------------------------------------------------------|
C|--------------------------------------------------------------------|


   = = =       = = =       =
d|--------------------------------------------------------------------|
A|--------------------------------------------------------------------|
F|-------7-7-7-------5-5-5--------------------------------------------|
C|-------X-X-X-------X-X-X--------------------------------------------|
G|-2-2-2-5-5-5-1-1-1-3-3-3-0------------------------------------------|
C|-2-2-2-------1-1-1-------0------------------------------------------|

Repeat intro
Rhythm for repeat intro:  (yes its strange but that C octave is there.)
d|--------------------------------------------------------------------|
A|--------------------------------------------------------------------|
F|------------------------------------55------------------------------|
C|------------------------------------XX------------------------------|
G|-4b-0h2-2--2-2-222---4b-0h2-2--2-2-233---4b-0h2-2--2-2-222----------|
C|-4b-0h2-2--2-2-222---4b-0h2-2--2-2-2-----4b-0h2-2--2-2-222----------|


   = = =       = = =       =
d|--------------------------------------------------------------------|
A|--------------------------------------------------------------------|
F|-------7-7-7-------5-5-5--------------------------------------------|
C|-------X-X-X-------X-X-X--------------------------------------------|
G|-2-2-2-5-5-5-1-1-1-3-3-3-0------------------------------------------|
C|-2-2-2-------1-1-1-------0------------------------------------------|





VERSE:
            = = = = =          = = = = =          = = = = =
d|--------------------------------------------------------------------|
A|--------------------------------------------------------------------|
F|--------------------------------------------------------------------|
C|-0h2-2222-----------0h2-2222-----------0h2-2222---------------------|
G|-0h2-2222-2-2-0-0-0-0h2-2222-2-2-0-0-0-0h2-2222-2-2-0-0-0-----------|
C|-0h2-2222-2-2-0-0-00h2-2222-2-2-0-0-0-0h2-2222-2-2-0-0-0-----------|

 
           = = = = =
d|--------------------------------------------------------------------|
A|--------------------------------------------------------------------|
F|--------------------------------------------------------------------|
C|-0h2-2222-----------------------------------------------------------|
G|-0h2-2222-2-2-0-0-0-------------------------------------------------|
C|-0h2-2222-2-2-0-0-0-------------------------------------------------|

PRE-CHORUS
d|--------------------------------------------------------------------|
A|--------------------------------------------------------------------|
F|--------4---4---4---4-----------3---3---3---3-----------5---5---5--5|
C|4br-0h2---2---2---2-----4br-0h2---2---2---2-----4br-0h2---2---2---2-|
G|--------------------------------------------------------------------|
C|--------------------------------------------------------------------|

   = =     = =
d|---------------------------------|
A|-------8-------11-11-11-11-------|
F|-------X-------X--X--X--X--------|
C|-------5-------8--8--8--8--------|
G|-2-2-----2-2---------------------|
C|-2-2-2---2-2-2-------------------|

d|--------------------------------------------------------------------|
A|--------------------------------------------------------------------|
F|--------4---4---4---4-----------3---3---3---3-----------5---5---5--5|
C|4br-0h2---2---2---2-----4br-0h2---2---2---2-----4br-0h2---2---2---2-|
G|--------------------------------------------------------------------|
C|--------------------------------------------------------------------|
                         
                          |CHORUS
                          |              ==   *
d|------------------------|-------------------------------------------|
A|--------5---5---5---5---|-------------------------------------------|
F|------------------------|-------------------------------------------|
C|4br-0h2---2---2---2-----|---------------------------------------7767|
G|------------------------|-0h2-2222---8-00-8-----0h2-2222-578757-5545|
C|------------------------|-0h2-2222---8-00-8-8~--0h2-2222-578757-----|






               ==   *               
d|--------------------------------------------------------------------|
A|--------------------------------------------------------------------|
F|--------------------------------------------------------------------|
C|--------------------------------------7767--2~---5-0~-5-10~-7/2~----|
G|0h2-2222---8-00-8-----0h2-2222-578757-5545--2~---5-0~-5-10~-7/2~----|
C|0h2-2222---8-00-8-8~--0h2-2222-578757-------2~---5-0~-5-10~-7/2~----|


  = =======            
d|--------------------------------------------------------------------|
A|--------------------------------------------------------------------|
F|--------------------------------------------------------------------|
C|--------------------------------------------------------------------|
G|0h2-254202~-5-0~-5-10~-7/-------------------------------------------|
C|0h2-254202~-5-0~-5-10~-7/-------------------------------------------|

Go straight into verse.
Repeat Pre-Chorus, Chorus

BRIDGE
    ====   ====        ====   ====
d|--------------------------------------------------------------------|
A|--------------6666---------------8888---------------6666------------|
F|--------------5555---------------7777---------------5555------------|
C|--------------3333---------------5555---------------3333------------|
G|2-2222-2-2222-3333-2-2222-2-2222-5555-2-2222-2-2222-3333------------|
C|2-2222-2-2222-3333-2-2222-2-2222-5555-2-2222-2-2222-3333------------|


    ====   ====
d|--------------------------------------------------------------------|
A|--------------------------------------------------------------------|
F|--------------------------------------------------------------------|
C|--------------------------------------------------------------------|
G|2-2222-2-2222--17//-------------------------------------------------|
C|2-2222-2-2222--17//-------------------------------------------------|

SOLO
d|--------------------------------------------------------------------|
A|--------------------------------------------------------------------|
F|---------9~---/14b-14-12-11-12-/17-16~--14141212----15151212--------|
C|-------9----------------------------------------1414--------1414----|
G|-/7~-7--------------------------------------------------------------|
C|--------------------------------------------------------------------|

d|--------------------------------------------------------------------|
A|--------------------------------------------------------------------|
F|14141212----15151212----14~----------------------------14-16-18-----|
C|--------1414--------1414-----14-16-17-16-17-19-17-19-21-------------|
G|--------------------------------------------------------------------|
C|--------------------------------------------------------------------|





d|--------------------------------------------------------19-20-19b~--|
A|------------------20-19-17---------------19-20-19~---20-------------|
F|16-18-19-18-19-21----------19-18-16-19b-----------------------------|
C|--------------------------------------------------------------------|
G|--------------------------------------------------------------------|
C|--------------------------------------------------------------------|


d|--------------|-----------------------------------------------------|
A|20b-20-19-17~-|-----------------------------------------------------|
F|--------------|-----------------------------------------------------|
C|--------------|-----------------------------------------------------|
G|--------------|-----------------------------------------------------|
C|--------------|-----------------------------------------------------|
                 
d|--------------------------------------------------------------------|
A|--------------------------------------------------------------------|
F|--------------------------------------------------------------------|
C|2~-5-0~-5-10-7/pickscrape-------------------------------------------|
G|2~-5-0~-5-10-7/pickscrape-------------------------------------------|
C|2~-5-0~-5-10-7/pickscrape-------------------------------------------|

OUTRO
d|--------------------------------------------------------------------|
A|--------------------------------------------------------------------|
F|----------------8888-----------------8888-----------------8888------|
C|----------------XXXX-----------------XXXX-----------------XXXX------|
G|0-2-0-2-0-2-0-2-6666-0-2-0-2-0-2-0-2-6666-0-2-0-2-0-2-0-2-6666------|
C|0-2-0-2-0-2-0-2------0-2-0-2-0-2-0-2------0-2-0-2-0-2-0-2-----------|


                  =======
d|--------------------------------------------------------------------|
A|--------------------------------------------------------------------|
F|--------------------------------------------------------------------|
C|--------------------------------------------------------------------|
G|0-2-0-2-0-2-0-2-----------------------------------------------------|
C|0-2-0-2-0-2-0-2-0234567---------------------------------------------|


Tap to rate this tab
 
# A B C D E F G H I J K L M N O P Q R S T U V W X Y Z