Song name
# A B C D E F G H I J K L M N O P Q R S T U V W X Y Z

Disciple - Watch It Burn tab

Watch it Burn
Disciple
Horseshoes and Hangrenades
Tabbed by Follow1

This song owns... it's off'a the new album, that's scheduled to be released on September 
Enjoy!


Intro
D----------------------------------|---------------------------------------|
A----------------------------------|---------------------------------------|
F----4-----------------------------|----4----------------------------------|
C-0--4---0---3--0-3--0--3/12-12----|-0--4--0---3---0---3----0----6-5-7-----|
G-0--2---0---3--0-3--0--3/12-12----|-0--2--0---3---0---3----0----6-5-7-----|
C-0------0---3--0-3--0--3/12-12----|-0-----0---3---0---3---0-----6-5-7-----|


D --------------------------------------|--------------------------------|
A --------------------------------------|--------------------------------|
F ------4-------------------------------|-----4--------------------------|
C --0---4--0---3---0---3----0---3/12-12-|-0---4--0--3---0--3---0---------|
G --0---2--0---3---0---3----0---3/12-12-|-0---2--0--3---0--3---0---------|
C --0------0---3---0---3----0---3/12-12-|-0------0--3---0--3---0--6-5-7-6|


Verse
D -----------------------------| -----------------------------|
A -----------------------------| -----------------------------|
F -----------------------------| -----------------------------|
C ----------------3------------| --------------3--------------|
G --------5-3-------5-3--------| ------5-3-------5-3------5---|
C ---0-0------6-5-------6-5-3~-| --0-0-----6-5-------5-3------|

D --------------------------------| ------------------------17\------|
A --------------------------------| ------------------------15\------|
F --------------------------------| ------------------------14\------|
C ----------------3---------------| ------------------3--------------|
G -------5-3---------5-3----------| --------5-3---------5-3----------|
C --0-0------6-5---------6-5-3~---| ---0-0-------6-5-----------------|


PreChorus

D --------------------------------------------------------------|
A --------------------------------------------------------------|
F --------------------------------------------------------------|
C -------------------------------------3------------------------|
G -------5-3------------------5-3--------5-3------5-------------|
C --0-0------6-5~--6\-0-0---------6-5--------5-3----------------|


D -------------------------------------------------------------------|
A -------------------------------------------------------------------|
F -------------------------------------------------------------------|
C --------------------------------------------------5-5-5-5-5-----5--|
G --------------------------------------------------5-5-5-5-5-----5--|
C --0-0-0-0-0-0-0-0-7-7-7-7-7-7-7-7-5-5-5-5-5-5-5-5-5-5-5-5-5-----5--|
    * * * * * * * * * * * * * * * * * * * * * * * *

Chorus

D ---------------------------------------------------|
A ---------------------------------------------------|
F ---------------------------------------------------|
C --8-8-8-8-5-5-5-5-0-0-0-0-3-3-3-3------------------|
G --8-8-8-8-5-5-5-5-0-0-0-0-3-3-3-3------------------|
C --8-8-8-8-5-5-5-5-0-0-0-0-3-3-3-3------------------|


D ----------------------------------------------------|
A ----------------------------------------------------|
F ----------------------------------------------------|
C --8-8-8-8-5-5-5-5-------3~------3~---------5---5----|
G --8-8-8-8-5-5-5-5---5-0----5-0-------5-0---5---5----|
C --8-8-8-8-5-5-5-5--------------------------5---5----|

Then intro, verse, prechorus, chorusm the solo of intro....

Thatís all that is needed... The solo is a really weird one, so I didnít tab, if you 
want to play that, which I donít think is any good, then listen to it yourself...

Tell me what you think
Tap to rate this tab
 
# A B C D E F G H I J K L M N O P Q R S T U V W X Y Z