Song name
# A B C D E F G H I J K L M N O P Q R S T U V W X Y Z

Disciple - Battle Lines tab

Battle Lines by Disciple Intro Tab

 I tried looking everywhere for this and couldn't find it so
I thought id make my own. The only way I was able to figure out the key change was with 
capo, but
if you know a better way of doing it...I'd love to know.

Drop B Tuning
b
f#
b
e
g#
c#


            |Capo 1|
|---------------------------------|
|---------------------------------|
|---------------------------------|
|---------------------------------|
|-------6-5---------------3-5-----|
|-0-0-0-----7-6-5-0-3-5-0-----3-5-|

|---------------------------------|
|---------------------------------|
|---------------------------------|
|---------------------------------|
|-------6-5---------------3b------|
|-0-0-0-----7-6-5-0-3-5-0---------|

|---------------------------------|
|---------------------------------|
|---------------------------------|
|---------------------------------|
|-------6-5---------------3-5-----|
|-0-0-0-----7-6-5-0-3-5-0-----3-5-|

|---------------------------------|
|---------------------------------|
|---------------------------------|
|---------------------------------|
|-------6-5-----------------------|
|-0-0-0-----7-6-5-0-3-5-0-0-------|

            |No Capo|
|---------------------------------|
|---------------------------------|
|---------------------------------|
|---------------------------------|
|-------6-5---------------3-5-----|
|-0-0-0-----7-6-5-0-3-5-0-----3-5-|

|---------------------------------|
|---------------------------------|
|---------------------------------|
|---------------------------------|
|-------6-5---------------3b------|
|-0-0-0-----7-6-5-0-3-5-0---------|

|---------------------------------|
|---------------------------------|
|---------------------------------|
|---------------------------------|
|-------6-5---------------3-5-----|
|-0-0-0-----7-6-5-0-3-5-0-----3-5-|

|---------------------------------|
|---------------------------------|
|-------------------------5b*-----|
|-------------------------5b*-----|
|-------6-5-----------------------|
|-0-0-0-----7-6-5-0-3-5-0---------|


  Legend
----------
b=Bend
*=Harmmonic


I'm going to leave this song as is for now until I can tab the rest....
still has some kinks. Anyway, hope you enjoy playing this awesome song!
Tap to rate this tab
 
# A B C D E F G H I J K L M N O P Q R S T U V W X Y Z