Song name
# A B C D E F G H I J K L M N O P Q R S T U V W X Y Z

Disciple - Disasterpiece tab

Song: Disasterpiece
Band: Disciple
Album: Horseshoes and Handgrenades (B-sides) (2010)
Tabbed by: JRedDisciple
Drop C (C,G,C,F,A,D)


(Distortion/fuzzy weird intro) then

D -----------------------------------------------------------|
A -----------------------------------------------------------|
F -----------------------------------------------------------|
C ------6--0-8888----3-0-7777----6--0-8888---55---4-1-0-1-3-1|  2x
G ------6--0-6666----3-0-5555----6--0-6666---33---2-1-0-1-3-1|
C -000--6--0-----000-3-0-----000-6--0-----000--000--1-0-1-3-1|
pm ***	         ***         ***	  ***  ***


Verse

D --------------------------------------------------------|
A --------------------------------------------------------|
F --------------------------------------------------------|
C -0-0-x--x--x--x--x--x--x--x--0-0--x--x--x--x--x---------|
G -0-0-x--x--x--x--x--x--x--x--0-0--x--x--x--x--x---STOP--|
C -0-0-x--x--x--x--x--x--x--x--0-0--x--x--x--x--x---------|
(The bush is burning, but itís not talkiní anymore...)			


Verse Part 2

D ---------------3x---------------|-----------------------------|
A --------------------------------|-----------------------------|
F --------------------------------|-----------------------------|   
C ---0----------------------------|--3--3--5--5--8-ring--\------|
G ---0--3h5-5-5-5-5-5-5-5-5-5-5-5-|--3--3--5--5--8-ring---\-----|
C ---0----------------------------|--3--3--5--5--8-ring----\----|


Chorus
D -----------2x------------|------------------|-----------------|
A -------------------------|------------------|-----------------|
F -------------------------|------------------|-----------------|
C ---0--3--5----8--5--7----|----0--3--5--8----|--0--3--5--8--5--|
G ---0--3--5----8--5--7----|----0--3--5--8----|--0--3--5--8--5--|
C ---0--3--5----8--5--7----|----0--3--5--8----|--0--3--5--8--5--|

D ------------------|
A ------------------|
F ------------------|
C -1-0-1-3-1-0-0----|
G -1-0-1-3-1-0-0----|

C -1-0-1-3-1-0-0----|

Verse Part 2 again

Chorus again

Chorus
D -----------2x------------|------------------|-----------------|
A -------------------------|------------------|-----------------|
F -------------------------|------------------|-----------------|
C ---0--3--5----8--5--7----|----0--3--5--8----|--0--3--5--8--5--|
G ---0--3--5----8--5--7----|----0--3--5--8----|--0--3--5--8--5--|
C ---0--3--5----8--5--7----|----0--3--5--8----|--0--3--5--8--5--|


D -----------------------------------------------------|
A -----------------------------------------------------|
F -----------------------------------------------------|
C -----6-0------3-0------6--0-----55----4-1-0-1-3-1-0--|
G------6-0------3-0------6--0-----33----2-1-0-1-3-1-0--|
C -000-6-0--000-3-0--000-6--0--000--000---1-0-1-3-1-0--|
pm *****    ***      ***       ***  ***


D ---------------------------------------------------------|
A ---------------------------------------------------------|
F ---------------------------------------------------------|
C -----6-0-8888----3-0-7777----6-0-8888---55---4-1-0-1-3-1-|  2x
G------6-0-6666----3-0-5555----6-0-6666---33---2-1-0-1-3-1-|
C -000-6-0-----000-3-0-----000-6-0-----000--000--1-0-1-3-1-|
pm ***	       ***         ***	       ***  ***


Chorus

D -----------2x------------|------------------|-----------------|
A -------------------------|------------------|-----------------|
F -------------------------|------------------|-----------------|
C ---0--3--5----8--5--7----|----0--3--5--8----|--0--3--5--8--5--|
G ---0--3--5----8--5--7----|----0--3--5--8----|--0--3--5--8--5--|
C ---0--3--5----8--5--7----|----0--3--5--8----|--0--3--5--8--5--|

Outro- same as intro (end on 0 0)


So thatís it, tell me what you think!!!
Rate and comment please!!
Tap to rate this tab
# A B C D E F G H I J K L M N O P Q R S T U V W X Y Z