Song name
# A B C D E F G H I J K L M N O P Q R S T U V W X Y Z

Disciple - Comedy Tragedy tab

Song: Comedy Tragedy
Band: Disciple
Album: Horseshoes and Handgrenades (B-sides) (2010)
Tabbed by: JRedDisciple
Drop C (C,G,C,F,A,D)

Intro
D ----------------2x--|------------|
A --------------------|------------|
F --------------------|-5----2-----|
C 2-0-0-2-0-0-2-3-----|-5----2--1--|
G 2-0-0-2-0-0-2-3-----|-3----0--1--|
C 2-0-0-2-0-0-2-3-----|---------1--|

D ----------------2x--|--------------|
A --------------------|--------------|
F --------------------|-5----4----8--|
C 2-0-0-2-0-0-2-3-----|-5----4----8--|
G 2-0-0-2-0-0-2-3-----|-3----2----6--|
C 2-0-0-2-0-0-2-3-----|--------------|

Verse
D ------------------12--------------|
A --17---17-------12-------------13-|
F -----16-------12--------14--16----|
C ----------------------------------|
G ----------------------------------|
C ----------------------------------|

Pre-Chorus

D -----------------|
A -----------------|
F -5--2------5--2--|
C -5--2--2---5--2--|
G -3--0--2---3--0--|
C -------2---------|

Chorus
D -----------------|
A -----------------|
F ----5-----4------|
C -2--5--5--4------|
G -2--3--5--2------|
C -2-----5---------|

Intro

Verse

Pre-Chorus

Chorus

Intro

Bridge
D ----------------------------------------|
A ----------------------------------------|
F --9b-9b-9b-9b-7b-7b-7b-7b-9b-9b-b-9b----|
C ----------------------------------------|
G ----------------------------------------|
C ----------------------------------------|

Chorus

Intro

Thatís it....
XD
Tap to rate this tab
# A B C D E F G H I J K L M N O P Q R S T U V W X Y Z