Song name
# A B C D E F G H I J K L M N O P Q R S T U V W X Y Z

Disciple - Fear And Suffering tab

Song: Fear and Suffering
Band: Disciple
Album: Horseshoes and Handgrenades (B-sides) (2010)
Tabbed by: JRedDisciple
Drop C (C,G,C,F,A,D)

Intro
D -----------------------------------------------------------------------|
A -----------------------------------------------------------------------|
F -4-----4-----4-----------------------4-----4-----4---------------------|
C -4--3--4--3--4--3--2--0--2--0--2--3--4--3--4--3--4--3--2--0--2--0--10--|
G -2--3--2--3--2--3--2--0--2--0--2--3--2--3--2--3--2--3--2--0--2--0--8---|
C ----3-----3-----3--2--0--2--0--2--3-----3-----3-----3--2--0--2--0------|

Verse
D ---------------------------------------2x------------------------|
A -----------------------------------------------------------------|
F -----------------------------------------------------------------|
C ---------3-2------------3-2-------------3-2------------3-2-------|
G -2-5-2-5-------2-5-2-5------5---2-5-2-5------4-5-4-5-------5-2---|
C -----------------------------------------------------------------|

D ------------------------------|
A ------------------------------|
F ------------------------------|
C ------------------------------|
G ------------------------------|
C -22222222222---555555555555---|
pm ***********   ************

(Guitar 1)
Chorus
D -------------|
A -------------|
F -------------|
C --4---7------|
G --2---5------|
C -------------|

(Guitar 2)
Chorus
D -------------|
A -------------|
F -------------|
C --2--5--0----|
G --2--5--0----|
C --2--5--0----|

Intro again

Verse 2



Bridge
D ------3x---|-------------------------------|
A -----------|-------------------------------|
F -3--5--7---|-3--5--4-----4-----4-----------|
C -3--5--7---|-3--5--4--3--4--3--4---3-------|
G -1--3--5---|-1--3--2--3--2--3--2---3-------|
C -----------|----------3-----3------3-------|

Chorus

Intro

That's it, watch'ya think??
Tap to rate this tab
# A B C D E F G H I J K L M N O P Q R S T U V W X Y Z