Song name
# A B C D E F G H I J K L M N O P Q R S T U V W X Y Z

Disciple - Collision tab

DISCIPLE COLLISION TAB
DROPPED C#/Db TUNING

A few notes: The amount of times a chord is played may not be entirely correct in this tab.
The "Lead" and "Rhythm" tabbing refers to when there are two detectable guitars.
Otherwise there is only one playing, or I didn't catch the other one.
This song is repetitive. That is why it was so easy to tab. I don't think the bridge is right.
Every other Disciple song on this CD seems to be in Drop C, I think this one can be 
played in Dropped C#/Db and I tabbed it that way because I hate detuning too far.
The parts are given in the order that they are played in the song. Thank you.

INTRO
eb|-----------------------------|
Bb|-----------------------------|
Gb|-----------------------------|
Db|----0---0--------------------| x2
Ab|-------------0---0---0---0---|
Db|-5----8---3---3---3---3------|

VERSE
eb|-----------------------------|
Bb|-----------------------------|
Gb|-----------------------------|
Db|----0---0--------------------| x4
Ab|-------------0---0---0---0---|
Db|-5----8---3---3---3---3------|

PRECHORUS LEAD
eb|-----------------------------|
Bb|-----------------------------|
Gb|-----------------------------|
Db|----0---0--------------------| x2
Ab|-------------0---0---0---0---|
Db|-5----8---3---3---3---3------|

PRECHORUS RHYTHM
eb|-----------------------------|
Bb|-----------------------------|
Gb|-----------------------------|
Db|-555-88888--33333333---------| x2
Ab|-555-88888--33333333---------|
Db|-555-88888--33333333---------|
pm   ***    ******       *********

CHORUS RHYTHM
eb|-----------------------------------------|
Bb|-----------------------------------------|
Gb|-----------------------------------------|    NOTE THAT THE NUMBER OF TIMES
Db|-1111-5555--0~h1111-8888-0000------------|   THESE CHORDS ARE PLAYED IS WRONG!
Ab|-1111-5555--0~h1111-8888-0000------------|
Db|-1111-5555--0~h1111-8888-0000------------|

CHORUS LEAD
eb|--------------13------------------------|
Bb|-13h15-13h15-----15-13h15-10~-----------|
Gb|----------------------------------------|
Db|----------------------------------------|
Ab|----------------------------------------|
Db|----------------------------------------|

INTERLUDE
eb|-----------------------------|
Bb|-----------------------------|
Gb|-----------------------------|
Db|----0---0--------------------| x2
Ab|-------------0---0---0---0---|
Db|-5----8---3---3---3---3------|

VERSE
eb|-----------------------------|
Bb|-----------------------------|
Gb|-----------------------------|
Db|----0---0--------------------| x4
Ab|-------------0---0---0---0---|
Db|-5----8---3---3---3---3------|

PRECHORUS LEAD
eb|-----------------------------|
Bb|-----------------------------|
Gb|-----------------------------|
Db|----0---0--------------------| x2
Ab|-------------0---0---0---0---|
Db|-5----8---3---3---3---3------|

PRECHORUS RHYTHM
eb|-----------------------------|
Bb|-----------------------------|
Gb|-----------------------------|
Db|-555-88888--33333333---------| x2
Ab|-555-88888--33333333---------|
Db|-555-88888--33333333---------|
pm ******************

CHORUS RHYTHM
eb|-----------------------------------------|
Bb|-----------------------------------------|
Gb|-----------------------------------------|
Db|-1111-5555--0~h1111-8888-0000------------| x2
Ab|-1111-5555--0~h1111-8888-0000------------|
Db|-1111-5555--0~h1111-8888-0000------------|

CHORUS LEAD
eb|--------------13------------------------|
Bb|-13h15-13h15-----15-13h15-10~-----------|
Gb|----------------------------------------|
Db|----------------------------------------| x2
Ab|----------------------------------------|
Db|----------------------------------------|




BRIDGE
eb|---------------------------------------------|
Bb|---------------------------------------------|
Gb|---------------------------------------------|
Db|-8-7-5-7~---------------8-7-5-7---------5----|
Ab|-6-5-3-5~0-3-5---0h5~---6-5-3-5~-0-3----3~---|
Db|---------0-3-5~--0h5~------------0-3---------|

eb|----------------------------------------------|
Bb|----------------------------------------------|
Gb|----------------------------------------------|
Db|-8-7-5-7~-------------8-7-5-7~----------------|
Ab|-6-5-3-5~-0-3-5~-0h5~-6-5-3-5~8-7-5--11-11-11-|
Db|----------0-3-5~-0h5~---------8-7-5--11-11-11-|

INTERLUDE
eb|-----------------------------|
Bb|-----------------------------|
Gb|-----------------------------|
Db|----0---0--------------------|
Ab|-------------0---0---0---0---|
Db|-5----8---3---3---3---3------|

PRECHORUS LEAD
eb|-----------------------------|
Bb|-----------------------------|
Gb|-----------------------------|
Db|----0---0--------------------| x2
Ab|-------------0---0---0---0---|
Db|-5----8---3---3---3---3------|

CHORUS RHYTHM
eb|-----------------------------------------|
Bb|-----------------------------------------|
Gb|-----------------------------------------|
Db|-1111-5555--0~h1111-8888-0000------------| x2
Ab|-1111-5555--0~h1111-8888-0000------------|
Db|-1111-5555--0~h1111-8888-0000------------|

CHORUS LEAD
eb|--------------13-------------------|
Bb|-13h15-13h15----------15-13h15-10~-|
Gb|-----------------------------------|
Db|-----------------------------------| x2
Ab|-----------------------------------|
Db|-----------------------------------|

OUTRO
eb|--------------------------------------------|
Bb|--------------------------------------------|
Gb|--------------------------------------------|
Db|----0---0----------------------0---0--------|
Ab|-------------0---0---0---0--------------0---|
Db|-5----8---3---3---3---3----5----8---3-------|
Tap to rate this tab
# A B C D E F G H I J K L M N O P Q R S T U V W X Y Z