Song name
# A B C D E F G H I J K L M N O P Q R S T U V W X Y Z

Disciple - Dear X You Dont Own Me tab

Dear X, You Don't Own Me- Disciple

Drop C

Pre-chorus
|---------------------------------------------------|
|---------------------------------------------------|
|---------------------------------------------------|
|-1111111111111111-00000000-33333333--------------- |
|-1111111111111111-00000000-33333333----------------|
|-1111111111111111-00000000-33333333----------------|
  ................ ........ ........


Chorus
|-----------------|
|-----------------|
|---------3-3-----|
|-5-5-1-1-3-3-3-3-| repeat as many times as needed
|-5-5-1-1-1-1-3-3-|
|-5-5-1-1-----3-3-|

End on
|---|
|---|
|---|
|-5-|
|-5-|
|-5-|


Bridge
|-------------------------------|
|-------------------------------|
|-77-77-77-77-------------------|
|-77-77-77-77-5-5-5-5-7-7-8-8---|
|-55-55-55-55-5-5-5-5-7-7-8-8---|
|-------------5-5-5-5-7-7-8-8---|

|--------------------------------------------|
|--------------------------------------------|
|-77-77-77-77-8-8-8-8-8-8-8-8-77777777-10/10-|
|-77-77-77-77-8-8-8-8-8-8-8-8-77777777--8--8-|
|-55-55-55-55-6-6-6-6-6-6-6-6-55555555--8--8-|
|--------------------------------------------|
Tap to rate this tab
# A B C D E F G H I J K L M N O P Q R S T U V W X Y Z