Song name
# A B C D E F G H I J K L M N O P Q R S T U V W X Y Z

Disciple - Eternity tab

Song: Eternity
Band: Disciple
Album: Horseshoes and Handgrenades (2010)
Tabbed by: JRedDisciple
Drop C (C,G,C,F,A,D)


Intro
D ----------------------------|
A ----------------------------|
F ----------------------------|
C -0-2-2-2\0-9-4-0-4-5-4-0----|
G -0-2-2-2\0-9-4-0-4-5-4-0----|
C -0-2-2-2\0-9-4-0-4-5-4-0----|

D -------------------------------|
A -------------------------------|
F -------------------------------|
C -0-2-2-2\0-10-9-0-4-5-4-0------|
G -0-2-2-2\0-10-9-0-4-5-4-0------|
C -0-2-2-2\0-10-9-0-4-5-4-0------|

D ----------------------------|
A ----------------------------|
F ----------------------------|
C -0-2-2-2\0-9-4-0-4-5-4-0----|
G -0-2-2-2\0-9-4-0-4-5-4-0----|
C -0-2-2-2\0-9-4-0-4-5-4-0----| 

D ------------------------|
A ------------------------|
F ------------------------|
C -0-2-2-2\0-10-9-7-9-----|
G -0-2-2-2\0-10-9-7-9-----|
C -0-2-2-2\0-10-9-7-9-----|

Verse
D ----555555-----55555-------222222------222222--------------------|
A -----------------------------------------------------------------|
F -------------------------------------------------------5-5-5-7---| 2x
C -55--------555-------55--22--------222----------22-----5-5-5-7---|
G -55--------555-------55--22--------222----------22-----3-3-3-5---|
C -55--------555-------55--22--------222----------22---------------|


Chorus
D --------------------------------|
A --------------------------------|
F --------5--7-----------5--7-----|
C --5--2--5--7--2--5--2--5--7-----|
G --5--2--3--5--2--5--2--3--5-----|
C --5--2--------2--5--2-----------|


D ---------------------------------------------------------|
A ----11b-------------------------11b----------------------|
F --------12-------------------------12-----9b--------9----|
C -22--------2222--9b-------9--22------2222-----10-12--10--|
G -22--------2222----10-12-----22------2222----------------|
C -22--------2222--------------22------2222----------------|

Bridge
D -----------------------------------------|
A -----------------------------------------|
F -------------4/5/-7------------5-4-------|
C -0-2-2-2\0---4/5/-5--0-2-2-2\0-5-4-0-4---|
G -0-2-2-2\0---2/3/-5--0-2-2-2\0-3-2-0-4---|
C -0-2-2-2\0-----------0-2-2-2\0-----0-4---|

D ---------------------------5555555-|
A -----------------------------------|
F -----------------------------------|
C -3-3-3-3-3-3-3-3-5-5---------------|
G -3-3-3-3-3-3-3-3-5-5---------------|
C -3-3-3-3-3-3-3-3-5-5---------------|

Chorus again, and Intro as Outro

Enjoy!
Tap to rate this tab
# A B C D E F G H I J K L M N O P Q R S T U V W X Y Z