Song name
# A B C D E F G H I J K L M N O P Q R S T U V W X Y Z

Disciple - Worth The Pain tab

Song: Worth the Pain
Band: Disciple
Album: Horseshoes and Handgrenades (2010)
Tabbed by: JRedDisciple
Drop C (C,G,C,F,A,D)

Piano intro...

Guitar 1
D -------------------|
A -------------------|
F -------------------|
C -0-3-5----0-8-7----|
G -0-3-5----0-8-7----|
C -0-3-5----0-8-7----|

Guitar 2
D ------------------|
A ------------------|
F --7-9-10-7-10-9---|
C ------------------|
G ------------------|
C ------------------|

Verse
D --------------------------------------|
A --------------------------------------|
F --------------------------------------|
C --------------------------------------|
G --------------------------------------|
C -000-00000-888-88-10-10-10-12-12-12---|
pm *********************************

D ------------------------------------|
A ------------------------------------|
F ------------------------------------|
C ---------------------------3-5-8----|
G ---------------------------3-5-8----|
C -000-00000-555-777-333-555-3-5-8----|

Chorus
Guitar 1
D----------------|
A ---------------|
F -------5-6-----|
C -0-8-3-5-6-----| 2x
G -0-8-3-3-4-----|
C -0-8-3---------|

Guitar 2
D----------------------------|
A ---7-10-5-12-14------------|
F ---------------------------|	2x
C ---------------------------|
G ---------------------------|
C ---------------------------|

Verse 2
Chorus

Bridge
D-----------------------------------|
A ----------------------------------|
F ----------------------------5-6---|
C -8-5-0-3-8-5-0-3------------5-6---|
G -8-5-0-3-8-5-0-3---pause----3-4---|
C -8-5-0-3-8-5-0-3------------------|

Chorus
Intro as Outro

Please rate and comment...
Enjoy!!
Tap to rate this tab
 
# A B C D E F G H I J K L M N O P Q R S T U V W X Y Z