Disciple - Lay My Burdens tab

Song: Lay My Burdens

Artist: Disciple

Tabbed by: GuitarPerson748

This is a really fun song to play. The solo sounds right to me, but please tell me if I 
have made any mistakes.

INTRO Guitar 2 (Clean)

E |------------------------------------------------|
B |------------------------------------------------|
G |-----------7-x-7-7h9-7-7-----7-x-7--------------|
D |-----------7-x-7-----7-7-7h9-7-x-7--------------|
A |-----7h9---------------------------7-9-10-9-----|
D |--0--------------------------------0-0-0--0-----|

E |--------------------------10-----------------------|
B |----------------------------10---------------------|
G |-----------7-x-7-7h9-7-7------9b-7h9-----7-x-7-----|
D |-----------7-x-7-----7-7-------------7h9-7-x-7-----|
A |-----7h9---------------------------------------7h9-|
D |--0--------------------------------------------0-0-|

INTRO 2 Guitar 2 (Distrorted)
:
E |------------------------------------------------------------|
B |------------------------------------------------------------|
G |-----9b11-9-7-7h9p7-9b12--9b11-7-7h9---7-7h9----------------|
D |-------------------------------------9-------7h9------------|
A |-------------------------------------------------7-9-9h10-9-|
D |-/----------------------------------------------------------|

E |------------------------------------------------------|
B |------------------------------------------------------|
G |--9b11-9-7-7h9p7-9b12--9b11-7--7h9-----7--------------|
D |-----------------------------------7h9---9-7--12-10-7-|
A |------------------------------------------------------|
D |------------------------------------------------------|

INTRO 2 Guitar 1 (Distorted)

E |--2-----------------2-------------------------------|
B |--3-----------------3-------------------------------|
G |--2-----5-----------2-----5-------------------------|
D |--0-----5-----5-----0-----5-----5-----5---------0---|
A |--0-----3-----5-----0-----3-----5-----5---------0---|
D |--0-----------5-----0-----------5-----5---3ph---0---|

VERSE (Clean) Basically the same as Intro 1

CHORUS (Distorted) Play the chords for Intro 2 Guitar 1

VERSE

CHORUS

SOLO (Distorted)Some parts of this are repeated, but I didn't write them down. Listen to 
the song for the parts that are repeated.

E |--8---10------------------------------------------------------------|
B |--11b-13b--------------10--------------13----13---13----13----------|
G |-----------10-12-12----10-----------12b---12b---12b---12b---12-10---|
D |--------------------12----12-10-12--------------------------------12|
A |--------------------------------------------------------------------|
D |--------------------------------------------------------------------|

E |-------10------13---------------------------------------------------|
B |-----10------13-------------10----10-12-12b-12b-12-10-12-10-12b-12--|
G |--12b-----12b-----12b-10----10----10-12-12b-12b-12-10-12-10-12b-12--|
D |-------------------------12----12-----------------------------------|
A |--------------------------------------------------------------------|
D |--------------------------------------------------------------------|

E |--------------------8---10---13b15-13-15b17-------------------------|
B |--10-12-10-12-10----11b-13b------------------10------10-------------|
G |--10-12-10-12-10--------------------------------12-12----12-12------|
D |-----------------12-------------------------------------------------|
A |--------------------------------------------------------------------|
D |--------------------------------------------------------------------|

E |-----15b----17p15p13-(repeating, very fast))------|
B |--13b---------------------------------------------|
G |--------------------------------------------------|
D |--------------------------------------------------|
A |--------------------------------------------------|
D |--------------------------------------------------|

E |--10--------13--------15---------15b-15-15b-15-13----|
B |----13p10-----15p13-----18p15--------------------15--|
G |---------12--------14--------17----------------------|
D |-----------------------------------------------------|
A |-----------------------------------------------------|
D |-----------------------------------------------------|

POST BRIDGE: Play Intro

FINAL CHORUS: Play Chords in Intro 2 Guitar 1 section

OUTRO: Play Intro

There you go. If you have any questions message me, and have fun playing Disciple!!!!
Tap to rate this tab
 
# A B C D E F G H I J K L M N O P Q R S T U V W X Y Z