Disciple - No End At All chords

Highlighted       Show chord diagrams
No end at all By Disciple
Tabbed by Dasell

I copied the solo from another tab
but the rest is mine


Intro: G, D#, F.

Verse:1
G                              F
Like a moon that tries to hide away
G                              F
But the dawn will catch it in a day
G                              F
Like an angry son thats moving on
G                              F
But he will never forget his home

D
Feel this grace shining in
A
theres nowhere that you've not

waltzed with me on
D
cant lead me on

Chorus:
                       D
There is nowhere I can go
             A
Even in the depths of the sea
         G
Your not to far away

       D
When I wake, when I sleep
        A
You are capturing me
       G         A               D
With a love that knows no end at all


Verse:2
G                              F
Like a desert thats dead and dry
G                              F
But the river fulls it up in time
G                              F
Like a daughter thats been thrown away
G                              F
Then is adopted by a kinder face

Solo
E----------------------------------------|
B----------------10~---10----------------|
G---------7h9-7~~---6-7--6-7-------------|
D------7h9--------------------7h9-7~9b---|
A--7h9-----------------------------------|
E----------------------------------------|

E--------------------------------------------|
B------------------10------------------10----|
G--------7h9-9~-9fb--9eb-----7h9-9-9fb---9eb-|
D-----7h9-----------------7h9----------------|
A--7h9---------------------------------------|
E--------------------------------------------|

E---------------------10-12fb-12fb-12fb-12fb-10~~~--|
B-----------10fb-10h12------------------------------|
G-----7h9-7-----------------------------------------|
D--7h9----------------------------------------------|
A---------------------------------------------------|
E--
Tap to rate this tab
 
# A B C D E F G H I J K L M N O P Q R S T U V W X Y Z