Song name
# A B C D E F G H I J K L M N O P Q R S T U V W X Y Z

Disciple - The Ballad Of St Augustine tab

-------------------------------------------------------------------------------
                  The Ballad of St. Augustine - Disciple
-------------------------------------------------------------------------------
Tabbed by: termin8tkop
Email:jstjohn123@rocketmail.com

Tuning:CGCFAD


palm mute= *

Intro:
D|---------------------------------------------------------------------------|
A|---------------------------------------------------------------------------|
F|---------------------------------------------------------------------------|
C|---------------------------------------------------------------------------|
G|---------------------------------------------------------------------------|
C|00000000---000---00000000---000000--8-7------------------------------------|

D|---------------------------------------------------------------------------|
A|---------------------------------------------------------------------------|
F|---------------------------------------------------------------------------|
C|---------------------------------------------------------------------------|
G|-------------------------------------7-------------------------------------|
C|00000000---000---00000000---000000--8--------------------------------------|

Intro 2:

D|---------------------------------------------------------------------------|
A|---------------------------------------------------------------------------|
F|---------------------------------------------------------------------------|
C|----------0------0-----------0----------8--7-------------------------------|
G|----------0------0-----------0----------8--7-------------------------------|
C|00000000--0--00--0--0000000--0--000000--8--7-------------------------------|

D|---------------------------------------------------------------------------|
A|---------------------------------------------------------------------------|
F|---------------------------------------------------------------------------|
C|----------0------0------------0--------------------------------------------|
G|----------0------0------------0-------------7------------------------------|
C|00000000--0--00--0--00000000--0--000000--8---------------------------------|

Verse:
play twice


D|---------------------------------------------------------------------------|
A|---------------------------------------------------------------------------|
F|---------------------------------------------------------------------------|
C|---------------------------------------------------------------------------|
G|---------------------------------------------------------------------------|
C|0000000--000--0000000--888887777--10b------3333333--333--33333333----------|           
             *********

                   Play this the second time
D|---------------------------------------------------------------------------|
A|---------------------------------------------------------------------------|
F|-------------------------(7/999/10)----------------------------------------|
C|-------------------------(7/999/10)----------------------------------------|
G|-------------------------(5/777/10)----------------------------------------|
C|-----3388888777775555------------------------------------------------------|
       **************



Chorus:
play 4 times


D|---------------------------------------------------------------------------|
A|---------------------------------------------------------------------------|
F|------------------------------10-9--10-------------------------------------|
C|888888888888---000000000------10-9--10-------------------------------------|
G|888888888888---000000000------8--7--8--------------------------------------|
C|888888888888---000000000---------------------------------------------------|


Post chorus:

D|---------------------------------------------------------------------------|
A|---------------------------------------------------------------------------|
F|---------------------------------------------------------------------------|
C|-----------------0---3---5-------------------------------------------------|
G|--------7-5555---0---3---5-------------------------------------------------|
C|-0-8-7-0---------0---3---5-------------------------------------------------|

Verse
Chorus

Post Chorus 2:

D|---------------------------------------------------------------------------|
A|---------------------------------------------------------------------------|
F|---------------------------------------------------------------------------|
C|0--3--5--7--0--------------------------------------------------------------|
G|0--3--5--7--0--------------------------------------------------------------|
C|0--3--5--7--0--------------------------------------------------------------|


Bridge:

D|---------------------------------------------------------------------------|
A|---------------------------------------------------------------------------|
F|---------------------------------------------------------------------------|
C|-----------------------------------------------------(play 4 times)--------|
G|--/5--7--8-------/5--7--12----/5--7--8------/10\4--------------------------|
C|---------------------------------------------------------------------------|

D|---------------------------------------------------------------------------|
A|---------------------------------------------------------------------------|
F|---------------------------------------------------------------------------|
C|---------------------------------------------------------------------------|
G|--------------------------------7-9-10-----9-10-12---------12-14-15--------|
C|0000000--000--000-------0000000--------000---------0000000-----------------|

D|---------------------------------------------------------------------------|
A|---------------------------------------------------------------------------|
F|---------------------------------------------------------------------------|
C|---------------------------------------------------------------------------|
G|-----------15-14-----------(play 2 times)----------------------------------|
C|000000000------------------------------------------------------------------|


Final chorus:

D|---------------------------------------------------------------------------|
A|---------------------------------------------------------------------------|
F|----------------------------10--9---10-----------(play 3 times)------------|
C|8888888888888888--0000000---10--9---10-------------------------------------|
G|8888888888888888--0000000---8---7---8--------------------------------------|
C|8888888888888888--0000000--------------------------------------------------|

D|---------------------------------------------------------------------------|
A|---------------------------------------------------------------------------|
F|---------------------------------------------------------------------------|
C|888888888888888---33333333333333-------------------------------------------|
G|888888888888888---33333333333333-------------------------------------------|
C|888888888888888---33333333333333-------------------------------------------|


D|---------------------------------------------------------------------------|
A|---------------------------------------------------------------------------|
F|-----------------------------10-9--10--------------------------------------|
C|888888888888888--00000000----10-9--10--------------------------------------|
G|888888888888888--00000000----8--7--8---------------------------------------|
C|888888888888888--00000000--------------------------------------------------|

D|---------------------------------------------------------------------------|
A|---------------------------------------------------------------------------|
F|---------------------------------------------------------------------------|
C|888888888888888888888------------------------------------------------------|
G|888888888888888888888------------------------------------------------------|
C|888888888888888888888------------------------------------------------------|


Then first part of intro 2 twice


Well thats all folks please comment and like! Enjoy the tab!
Tap to rate this tab
# A B C D E F G H I J K L M N O P Q R S T U V W X Y Z